Oops, an error
Loading. Please wait.

Midnight Shadows Crawl To Darken Counsel With Life Tab

ver1
ver1

Whole song

Interactive

More versions @911Tabs.com
1,058 views 1 this week
no commentswrite comment
1 2 3 4 5
excellent!
x 3
add to favorites launch autoscroll
font size
0
reset
Autoscroll
+/-
esc
set tempo
stop
Contributor
WARNING: You are trying to view
                                    content from Ultimate-Guitar.com
                                    in an unauthorized application,
                                    which is prohibited.

                                    Please use an official Ultimate
                                    Guitar Tabs application for iPhone,
                                    iPad or Android to access legitimate
                                    chords, guitar, bass, and drum tabs
                                    from Ultimate-Guitar.com database.

                                    Type "ultimate guitar tabs" in Apple
                                    App Store's or Android Market's
                                    search to find the application.
Cradle of Filth
Midnight shadows crawl to darken counsel with life
Godspeed on the Devil's thunder


use the comments option for corrections/suggestions thanks!

v1.0 October 2008



(00:22) Riff A

d:-------------------------------------------------------------------|
A:-------------------------------------------------------------------|
F:-------------------------------------------------------------------|
C:-------------------------------------------------------------------|
G:---7-7-7-7-7-7-7-7-7-7-7-7-9-7-6-6-6-6-6-6-6-6-6-6-6-6-6-6-8-8-6h8-|
D:---5-5-5-5-5-5-5-5-5-5-5-5-7-5-4-4-4-4-4-4-4-4-4-4-4-4-------------|


d:-------------------------------------------------------------------|
A:-------------------------------------------------------------------|
F:-------------------------------------------------------------------|
C:------------------------------------------------------------6-6-6--|
G:-p6-----3-3-3-3-3-3-3-3-3-3-3-3-5-3-2-2-2-2-2-2-2-2-2-2-2-2--------|
D:----4-4-1-1-1-1-1-1-1-1-1-1-1-1-3-1-0-0-0-0-0-0-0-0-0-0-0-0--------|


d:-------------------------------------------------------------------|
A:-------------------------------------------------------------------|
F:-------------------------------------------------------------------|
C:--7-7-7-6-6p4h6-6--------------------------------------------------|
G:-------------------------------------------------------------------|
D:-------------------------------------------------------------------|



(00:41) Riff B

d:-------------------------------------------------------------------|
A:-------------------------------------------------------------------|
F:--------------------------------------------------8-8-10-10-8h10p8-|
C:---7-7-7-7-7-7-7-7-7-7-7-7-7-7-9-7-6-6-6-6-6-6-6-------------------|
G:--------------------------------------------------6-6-8--8--6-h8p6-|
D:---5-5-5-5-5-5-5-5-5-5-5-5-5-5-7-5-4-4-4-4-4-4-4-------------------|


d:-------------------------------------------------------------------|
A:--------------------------------------------------9-9-9-10-10-10---|
F:-------------------------------------------------------------------|
C:---3-3-3-3-3-3-3-3-3-3-3-3-3-3-5-3-2-2-2-2-2-2-2--6-6-6-7--7--7----|
G:-------------------------------------------------------------------|
D:-4-1-1-1-1-1-1-1-1-1-1-1-1-1-1-3-1-0-0-0-0-0-0-0-------------------|


d:-------------------------------------------------------------------|
A:--9-9-7-7-9-9------------------------------------------------------|
F:-------------------------------------------------------------------|
C:--6-6-4-4-6-6------------------------------------------------------|
G:-------------------------------------------------------------------|
D:-------------------------------------------------------------------|



(01:19) Riff C

d:-------------------------------------------------------------------|
A:-------------------------------------------------------------------|
F:o------------------------------------------------------------------|
C:o--9-9-9-9-9-9-9-9-9-9-9-9-9-9-9-9-8-8-8-8-8-8-8-8-8-8-8-8-8-8-8-8-|
G:---7-7-7-7-7-7-7-7-7-7-7-7-7-7-7-7-6-6-6-6-6-6-6-6-6-6-6-6-6-6-6-6-|
D:-------------------------------------------------------------------|

d:-------------------------------------------------------------------|
A:-------------------------------------------------------------------|
F:------------------------------------------------------------------o|
C:--7-7-7-7-7-7-7-7-7-7-7-7-7-7-7-7-6-6-6-6-6-6-6-6-6-6-6-6-6-6-6-6-o|
G:--5-5-5-5-5-5-5-5-5-5-5-5-5-5-5-5-4-4-4-4-4-4-4-4-4-4-4-4-4-4-4-4--|
D:-------------------------------------------------------------------|



(01:39) Riff D

d:-------------------------------------------------------------------|
A:-------------------------------------------------------------------|
F:o------------------------------------------------------------------|
C:o--------------5-5-4-4-4-4-5-5-5-5-7-7-7-7-5-5-4-4-5-5-5-5---------|
G:---7-7-7-7-7-7---------------------------------------------6-6-6-6-|
D:-------------------------------------------------------------------|


d:-------------------------------------------------------------------|
A:-------------------------------------------------------------------|
F:--------------5-5-4-4-----5-5-4-4-------------5-5-4-4-----5-5-4-4-o|
C:--3-3-3-3-6-6---------6-6---------3-3-3-3-6-6---------6-6---------o|
G:-------------------------------------------------------------------|
D:-------------------------------------------------------------------|



(01:58) Riff E

d:-------------------------------------------------------------------|
A:-------------------------------------------------------------------|
F:---------------3-3-2-2-2-2-3-3-3-3-5-5-5-5-3-3-2-2-3-3-3-3---------|
C:---5-5-5-5-5-5---------------------------------------------4-4-4-4-|
G:-------------------------------------------------------------------|
D:-------------------------------------------------------------------|


d:-------------------------------------------------------------------|
A:-------------------------------------------------------------------|
F:--------------8-8-7-7-----8-8-7-7-------------8-8-7-7-----8-8-7-7--|
C:--6-6-6-6-9-9---------9-9---------6-6-6-6-9-9---------9-9----------|
G:-------------------------------------------------------------------|
D:-------------------------------------------------------------------|


d:-------------------------------------------------------------------|
A:-------------------------------------------------------------------|
F:---------------3-3-2-2-2-2-3-3-3-3-5-5-5-5-3-3-2-2-3-3-3-3---------|
C:---5-5-5-5-5-5---------------------------------------------4-4-4-4-|
G:-------------------------------------------------------------------|
D:-------------------------------------------------------------------|


d:-------------------------------------------------------------------|
A:-------------------------------------------------------------------|
F:--------------8-8-7-7-----8-8-7-7-------------8-8------------------|
C:--6-6-6-6-9-9---------9-9---------6-6-6-6-9-9----------------------|
G:---------------------------------------------------5-6--6-5-5-4----|
D:---------------------------------------------------3-4--4-3-3-2----|



(02:17) Riff F

d:-------------------------------------------------------------------|
A:-------------------------------------------------------------------|
F:-------------------------------------------------------------------|
C:-------------------------------------------------------------------|
G:-------------------------------------------------------------------|
D:---8p0-7p0-7p0-7p0-6p0-7p0-7p0-7p0--8p0-7p0-7p0-7p0-1-2-3-4-6h7-0--|


d:-------------------------------------------------------------------|
A:-------------------------------------------------------------------|
F:-------------------------------------------------------------------|
C:-------------------------------------------------------------------|
G:--------------------------------------------------------8-0-7-0-6--|
D:--4-3--8p0-7p0-7p0-7p0-6p0-7p0-7p0-7p0--8p0-7p0-7p0-7p0------------|


d:-------------------------------------------------------------------|
A:-------------------------------------------------------------------|
F:-------------------------------------------------------------------|
C:-------------------------------------------------------------------|
G:--0-5-0------------------------------------------------------------|
D:-------------------------------------------------------------------|



(03:53) Riff G

d:-------------------------------------------------------------------|
A:-------------------------------------------------------------------|
F:-------------------------------------------------------------------|
C:-------------------------------------------------------------------|
G:-------------------------------------------------------------------|
D:---8p0-7p0-7p0-7p0-6p0-7p0-7p0-7p0--8p0-7p0-7p0-7p0-1-2-3-4-6h7-0--|


d:-------------------------------------------------------------------|
A:-------------------------------------------------------------------|
F:-------------------------------------------------------------------|
C:-------------------------------------------------------------------|
G:--------------------------------------------------------8-0-7-0-6--|
D:--4-3--8p0-7p0-7p0-7p0-6p0-7p0-7p0-7p0--8p0-7p0-7p0-7p0------------|


d:-------------------------------------------------------------------|
A:-------------------------------------------------------------------|
F:-------------------------------------------------------------------|
C:-------------------------------------------------------------------|
G:--0-5-0--7--s1-----------------------------------------------------|
D:-------------------------------------------------------------------|



(04:48) Riff H

d:-------------------------------------------------------------------|
A:-------------------------------------------------------------------|
F:-----10-9-10---10-9-7-5-------5-----7-4-----5-7-5h7p5--------------|
C:---7---------7-----------------------------------------7-5---5-7-7-|
G:-------------------------------------------------------------------|
D:-------------------------------------------------------------------|
 |                                                                   |
d:-------------------------------------------------------------------|
A:------------------------------6h8p6h8-------5-6-5h6p5--------------|
F:-----10-9-10---10-9-7-9---------------7----------------7-4---4-5-5-|
C:---7---------7-----------------------------------------------------|
G:-------------------------------------------------------------------|
D:-------------------------------------------------------------------|


d:-------------------------------------------------------------------|
A:-------------------------------------------------------------------|
F:-----10-9-10---10-9-7-5-------5-----7-4-----5-7-5h7h5--------------|
C:---7---------7-----------------------------------------7-5---5-7-7-|
G:-------------------------------------------------------------------|
D:-------------------------------------------------------------------|
 |                                                                   |
d:-------------------------------------------------------------------|
A:------------------------------6h8p6h8-------5-6-5h6p5--------------|
F:-----10-9-10---10-9-7-9---------------7----------------7-4---4-5-5-|
C:---7---------7-----------------------------------------------------|
G:-------------------------------------------------------------------|
D:-------------------------------------------------------------------|


d:-----------------------|
A:-----------------------|
F:-----10-9-10---10-9-7--|
C:---7---------7---------|
G:-----------------------|
D:-----------------------|
 |                       |
d:-----------------------|
A:-----------------------|
F:-----10-9-10---10-9-7--|
C:---7---------7---------|
G:-----------------------|
D:-----------------------|



(05:10) Riff I

d:-------------------------------------------------------------------|
A:-------------------------------------------------------------------|
F:o------------------------------------------------------------------|
C:o------3-5------3-5------5-----------5--------3-5------3-5------5--|
G:-----5--------5--------5---6-5-6-3-6---6----5--------5--------5----|
D:---3--------3--------4--------------------3--------3--------4------|


d:-------------------------------------------------------------------|
A:-------------------------------------------------------------------|
F:--------4-5-4-----------------------------------------------------o|
C:----5-6-------6-5-6-----------------------------------------------o|
G:--6----------------------------------------------------------------|
D:-------------------------------------------------------------------|



(05:29) Riff J

d:-------------------------------------------------------------------|
A:-------------------------------------------------------------------|
F:o------------------------------------------------------------------|
C:o--11-11-11-11-11-11-11-11-11-11-11-11-10-10-10-10-10-10-10-10-11--|
G:-------------------------------------------------------------------|
D:-------------------------------------------------------------------|
 |                                                                   |
d:-------------------------------------------------------------------|
A:-------------------------------------------------------------------|
F:o--10-10-10-10-10-10-10-10-10-10-10-10-9--9--9--9--9--9--9--9--10--|
C:o------------------------------------------------------------------|
G:-------------------------------------------------------------------|
D:-------------------------------------------------------------------|


d:-------------------------------------------------------------------|
A:-------------------------------------------------------------------|
F:-------------------------------------------------------------------|
C:-11-10-10-------------------------------------10-10-11-11-10-10-10-|
G:----------11-11-11-11-11-11-11-11-11-11-11-11----------------------|
D:-------------------------------------------------------------------|
 |                                                                   |
d:-------------------------------------------------------------------|
A:-------------------------------------------------------------------|
F:-10-9--9-----------------------------------------------------------|
C:----------11-11-11-11-11-11-11-11-11-11-11-11-10-10-11-11-10-10-10-|
G:-------------------------------------------------------------------|
D:-------------------------------------------------------------------|


d:----------------------------------------------|--------------------|
A:----------------------------------------------|--------------------|
F:----------------------------------------------|--------------------|
C:--10-10-10-10-8-8-8-8-10-10-10-10-11-11-11-11-|-11-11-11-11-11-11--|
G:----------------------------------------------|--------------------|
D:----------------------------------------------|--------------------|
 |                                              |                    |
d:----------------------------------------------|--------------------|
A:----------------------------------------------|--------------------|
F:----------------------------------------------|-10-10-10-10-10-10--|
C:--10-10-10-10-8-8-8-8-10-10-10-10-11-11-11-11-|--------------------|
G:----------------------------------------------|--------------------|
D:----------------------------------------------|--------------------|


d:-------------------------------------------------------------------|
A:-------------------------------------------------------------------|
F:-------------------------------------------------------------------|
C:--11-11-11-11-11-11-10-10-10-10-10-10-10-10-11-11-10-10------------|
G:--------------------------------------------------------11-11-11---|
D:-------------------------------------------------------------------|
 |                                                                   |
d:-------------------------------------------------------------------|
A:-------------------------------------------------------------------|
F:--10-10-10-10-10-10-9--9--9--9--9--9--9--9--10-10-9--9-------------|
C:-------------------------------------------------------11-11-11----|
G:-------------------------------------------------------------------|
D:-------------------------------------------------------------------|


d:-------------------------------------------------------------------|
A:-------------------------------------------------------------------|
F:-----------------------------------------------9-9-9-10-12--------o|
C:-----------------------------11-11-11-10-10-10--------------------o|
G:--11-11-11-11-11-11-11-11-11---------------------------------------|
D:-------------------------------------------------------------------|
 |                                                                   |
d:-------------------------------------------------------------------|
A:-------------------------------------------------------------------|
F:-----------------------------------------------9-9-9-10-10-12-----o|
C:--11-11-11-11-11-11-11-11-11-11-11-11-10-10-10--------------------o|
G:-------------------------------------------------------------------|
D:-------------------------------------------------------------------|



(05:48) Riff K

d:-------------------------------------------------------------------|
A:-------------------------------------------------------------------|
F:-------------------------------------------------------------------|
C:------------------------------5------------------------------------|
G:---2------5-3----5-6-5------6---6-5-3-5------2--3-4-5----3-5-6-----|
D:---0----0-3-1----3-4-3------------------3hbr-0--1-2-3----1-3-4-----|


d:-------------------------------------------------------------------|
A:-------------------------------------------------------------------|
F:-------------------------------------------------------------------|
C:----5--------------------------------------5-----------------------|
G:--6---6-5-3-5---2------5-3----5-6-5------6---6-5-3-5------2--3-4-5-|
D:----------------0----0-3-1----3-4-3------------------3hbr-0--1-2-3-|


d:-------------------------------------------------------------------|
A:-------------------------------------------------------------------|
F:-------------------------------------------------------------------|
C:-------------5-----------------------------------------------------|
G:--3-5-6----6---6-5-3-5-5-------------------------------------------|
D:--1-3-4------------------------------------------------------------|



(07:10) Riff L

d:-------------------------------------------------------------------|
A:-------------------------------------------------------------------|
F:-------------------------------------------------------------------|
C:-------------------------------------------------------------0-2-3-|
G:-------------------------------------------1-2---1-2-3-2-3-4-------|
D:---8p0-7p0-7p0-7p0-6p0-7p0-7p0-7p0-1-2-3-4-----4-------------------|

comments
We did not receive enough feedback on this tab! Please rate:
print report bad tab
1 2 3 4 5
I want to post or [tab]
guest
You may want to rate the tab now too:
select rating
Please do not post tabs as comments. Select "correction" instead!