Oops, an error
Loading. Please wait.

Mother Of Abominations Tab

ver1
ver1

Whole song

Interactive

More versions @911Tabs.com
265 views 1 this week
no commentswrite comment
1 2 3 4 5
please rate
Autoscroll
+/-
esc
set tempo
stop
Contributor
Tuning
D G C F A D
Hey! There's an official Ultimate Guitar app which is ideal
for learning songs when you're away from computer. Get the app
WARNING: You are trying to view
                                    content from Ultimate-Guitar.com
                                    in an unauthorized application,
                                    which is prohibited.

                                    Please use an official Ultimate
                                    Guitar Tabs application for iPhone,
                                    iPad or Android to access legitimate
                                    chords, guitar, bass, and drum tabs
                                    from Ultimate-Guitar.com database.

                                    Type "ultimate guitar tabs" in Apple
                                    App Store's or Android Market's
                                    search to find the application.
CRADLE OF FILTH
MOTHER OF ABOMINATIONS
D-G-C-F-A-D

*=PALM MUTE

WHOLE SONG IS TABBED WITH BOTH GTR PARTS

BOTH
------------------------------------------------------------------|
------------------------------------------------------------------|
-----------------7-7-7-7-------------------------7-7-7-7----------|
---------7-7-7-7---------7-7-7-7---------7-7-7-7---------7-7-7-7--|
-5-5-5-5-------------------------5-5-5-5--------------------------|
------------------------------------------------------------------|

----------------------------------------------------------------------------|
----------------------------------------------------------------------------|
---------------------10-10-10-10---------------------8-8-8-8---------9-9-9-9|
---------10-10-10-10-------------10-10-10-10-----8-8-------------9-9--------|
-8-8-8-8-------------------------------------6-6-------------7-7------------|
----------------------------------------------------------------------------|

------------------------------------------------------------------|
------------------------------------------------------------------|
-----------------7-7-7-7-------------------------7-7-7-7----------|
---------7-7-7-7---------7-7-7-7---------7-7-7-7---------7-7-7-7--|
-5-5-5-5-------------------------5-5-5-5--------------------------|
------------------------------------------------------------------|

----------------------------------------------------------------------------|
----------------------------------------------------------------------------|
---------------------10-10-10-10---------------------8-8-8-8---------9-9-9-9|
---------10-10-10-10-------------10-10-10-10-----8-8-------------9-9--------|
-8-8-8-8-------------------------------------6-6-------------7-7------------|
----------------------------------------------------------------------------|

------------------------------------------------------------------|
------------------------------------------------------------------|
-----------------7-7-7-7-------------------------7-7-7-7----------|
---------7-7-7-7---------7-7-7-7---------7-7-7-7---------7-7-7-7--|
-5-5-5-5-------------------------5-5-5-5--------------------------|
------------------------------------------------------------------|

----------------------------------------------------------------------------|
----------------------------------------------------------------------------|
---------------------10-10-10-10---------------------8-8-8-8---------9-9-9-9|
---------10-10-10-10-------------10-10-10-10-----8-8-------------9-9--------|
-8-8-8-8-------------------------------------6-6-------------7-7------------|
----------------------------------------------------------------------------|

------------------------------------------------------------------|
------------------------------------------------------------------|
-----------------7-7-7-7-------------------------7-7-7-7----------|
---------7-7-7-7---------7-7-7-7---------7-7-7-7---------7-7-7-7--|
-5-5-5-5-------------------------5-5-5-5--------------------------|
------------------------------------------------------------------|

----------------------------------------------------------------------------|
----------------------------------------------------------------------------|
---------------------10-10-10-10---------------------8-8-8-8---------9-9-9-9|
---------10-10-10-10-------------10-10-10-10-----8-8-------------9-9--------|
-8-8-8-8-------------------------------------6-6-------------7-7------------|
----------------------------------------------------------------------------|

---------------------------------------------------------------------------|
---------------------------------------------------------------------------|
---------------------------------------------------------------------------|
--------------------------------  ----)(-------)(--------------------------|
-4---4---4---2--5-4-****-4-****-****-4---****-1---4-****-4-****-4-****-2-5-|
-2|--2|--2|--0--3-2-2222-2-2222-2355-----2355-----2-2222-2-2222-2-2222-0-3-|


----------------------------------------------------------------|
----------------------------------------------------------------|
----------------------------------------------------------------|
----------------------------------------------------------------|
---------------------------------2-2-2-2------------------------|
-1-1-1-1-4-4-4-4-3-3-3-3-4-4-4-4---------4-4-4-4-3-3-3-3-4-4-4-4|

----------------------------------------------------------------------------------|
----------------------------------------------------------------------------------|
----------------------------------------------------------------------------------|
----------------------------------------------)(-------)(-------------------------|
4-****-4-****-4-****-2--5-4-****-4-****-****-4---****-1---4-****-4-****-4-****-2-5|
2-2222-2-2222-2-2222-0--3-2-2222-2-2222-2355-----2355-----2-2222-2-2222-2-2222-0-3|


---------------------------------------------------|
---------------------------------------------------|
---------------------------------------------------|
---------------------------------------------------|
---------------------------------2-2-2-2-----------|
-1-1-1-1-4-4-4-4-3-3-3-3-4-4-4-4---------4-4-4-4-3-|

------------------------------------------------------------------|
------------------------------------------------------------------|
-----------------7-7-7-7-------------------------7-7-7-7----------|
---------7-7-7-7---------7-7-7-7---------7-7-7-7---------7-7-7-7--|
-5-5-5-5-------------------------5-5-5-5--------------------------|
------------------------------------------------------------------|

----------------------------------------------------------------------------|
----------------------------------------------------------------------------|
---------------------10-10-10-10---------------------8-8-8-8---------9-9-9-9|
---------10-10-10-10-------------10-10-10-10-----8-8-------------9-9--------|
-8-8-8-8-------------------------------------6-6-------------7-7------------|
----------------------------------------------------------------------------|

------------------------------------------------------------------|
------------------------------------------------------------------|
-----------------7-7-7-7-------------------------7-7-7-7----------|
---------7-7-7-7---------7-7-7-7---------7-7-7-7---------7-7-7-7--|
-5-5-5-5-------------------------5-5-5-5--------------------------|
------------------------------------------------------------------|

----------------------------------------------------------------------------|
----------------------------------------------------------------------------|
---------------------10-10-10-10---------------------8-8-8-8---------9-9-9-9|
---------10-10-10-10-------------10-10-10-10-----8-8-------------9-9--------|
-8-8-8-8-------------------------------------6-6-------------7-7------------|
----------------------------------------------------------------------------|

------------------------------------------------------------------|
------------------------------------------------------------------|
-----------------7-7-7-7-------------------------7-7-7-7----------|
---------7-7-7-7---------7-7-7-7---------7-7-7-7---------7-7-7-7--|
-5-5-5-5-------------------------5-5-5-5--------------------------|
------------------------------------------------------------------|

----------------------------------------------------------------------------|
----------------------------------------------------------------------------|
---------------------10-10-10-10---------------------8-8-8-8---------9-9-9-9|
---------10-10-10-10-------------10-10-10-10-----8-8-------------9-9--------|
-8-8-8-8-------------------------------------6-6-------------7-7------------|
----------------------------------------------------------------------------|

------------------------------------------------------------------|
------------------------------------------------------------------|
-----------------7-7-7-7-------------------------7-7-7-7----------|
---------7-7-7-7---------7-7-7-7---------7-7-7-7---------7-7-7-7--|
-5-5-5-5-------------------------5-5-5-5--------------------------|
------------------------------------------------------------------|

----------------------------------------------------------------------------|
----------------------------------------------------------------------------|
---------------------10-10-10-10---------------------8-8-8-8---------9-9-9-9|
---------10-10-10-10-------------10-10-10-10-----8-8-------------9-9--------|
-8-8-8-8-------------------------------------6-6-------------7-7------------|
----------------------------------------------------------------------------|

---------------------------------------------------------------------------|
---------------------------------------------------------------------------|
---------------------------------------------------------------------------|
--------------------------------  ----)(-------)(--------------------------|
-4---4---4---2--5-4-****-4-****-****-4---****-1---4-****-4-****-4-****-2-5-|
-2|--2|--2|--0--3-2-2222-2-2222-2355-----2355-----2-2222-2-2222-2-2222-0-3-|

----------------------------------------------------------------|
----------------------------------------------------------------|
----------------------------------------------------------------|
----------------------------------------------------------------|
---------------------------------2-2-2-2------------------------|
-1-1-1-1-4-4-4-4-3-3-3-3-4-4-4-4---------4-4-4-4-3-3-3-3-4-4-4-4|

----------------------------------------------------------------------------------|
----------------------------------------------------------------------------------|
----------------------------------------------------------------------------------|
----------------------------------------------)(-------)(-------------------------|
4-****-4-****-4-****-2--5-4-****-4-****-****-4---****-1---4-****-4-****-4-****-2-5|
2-2222-2-2222-2-2222-0--3-2-2222-2-2222-2355-----2355-----2-2222-2-2222-2-2222-0-3|

------------------------------------------------------------|
------------------------------------------------------------|
------------------------------------------------------------|
------------------------------------------------------------|
---------------------------------2-2-2-2----------^--4------|
-1-1-1-1-4-4-4-4-3-3-3-3-4-4-4-4---------4-4-4-4-3-4---6----|



GT.1
------------------------------------------------------------|
------------------------------------------------------------|
------------------------------------------------------------|
----------------------------9-8-----------------------------|
-9---8-9-8---7-8-7---6-7-6--7-6--9---8-9-8---7-8-7---3---4--|
-7---6-7-6---5-6-5---4-5-4--7-6--7---6-7-6---5-6-5---1---2--|
GT.2
--------------------------------------------------------------|
--------------------------------------------------------------|
--------------------------------------------------------------|
----------------------------9-8-------------------------------|
-9---8-9-9---8-9-9---6-7-6--7-6--9---8-9-9----8-9-9---3---4---|
-7---6-7-7---6-7-7---4-5-4--7-6--7---6-7-7----6-7-7---1---2---|


GT.1
---------------------------------------------------------------|
---------------------------------------------------------------|
---------------------------------------------------------------|
----------------------------9-8--------------------------------|
-9---8-9-8---7-8-7---6-7-6--7-6--9---8-9-8---7-8-7---3-3-3-4-4-|
-7---6-7-6---5-6-5---4-5-4--7-6--7---6-7-6---5-6-5---1-1-1-2-2-|
GT.2
-----------------------------------------------------------------|
-----------------------------------------------------------------|
-----------------------------------------------------------------|
----------------------------9-8----------------------------------|
-9---8-9-9---8-9-9---6-7-6--7-6--9---8-9-9----8-9-9---3-3-3-4-4--|
-7---6-7-7---6-7-7---4-5-4--7-6--7---6-7-7----6-7-7---1-1-1-2-2--|


GT.1
------------------------------------------------------------------|
------------------------------------------------------------------|
------------------------------------------------------------------|
------------------------------------------------------------------|
-4-4-4-4-6-4-6-6-7-7-7-7-6-7-6-6-4-4-4-4-6-4-6-6-7-7-7-7-6-7-6-6--|
------------------------------------------------------------------|
GT.2
------------------------------------------------------------------|
------------------------------------------------------------------|
------------------------------------------------------------------|
------------------------------------------------------------------|
-4-4-4-4-6-4-6-6-7-7-7-7-6-7-6-6-4-4-4-4-6-4-6-6-7-7-7-7-6-7-6-6--|
------------------------------------------------------------------|


GT.1
------------------------------------------------------------------|
------------------------------------------------------------------|
------------------------------------------------------------------|
---------6-6-6-6-4-4-4-4-6-6-6-6---------7-7-7-7-6-6-6-6-7-7-7-7--|
-7-7-7-7-------------------------7-7-7-7--------------------------|
------------------------------------------------------------------|
GT.2
------------------------------------------------------------------|
------------------------------------------------------------------|
-----------------------------------------6-6-6-6-4-4-4-4-6-6-6-6--|
-6-6-6-6-9-9-9-9-8-8-8-8-9-9-9-9-6-6-6-6--------------------------|
------------------------------------------------------------------|
------------------------------------------------------------------|


GT.1
------------------------------------------------------------------|
------------------------------------------------------------------|
------------------------------------------------------------------|
------------------------------------------------------------------|
-4-4-4-4-6-4-6-6-7-7-7-7-6-7-6-6-4-4-4-4-6-4-6-6-7-7-7-7-6-7-6-6--|
------------------------------------------------------------------|
GT.2
------------------------------------------------------------------|
------------------------------------------------------------------|
------------------------------------------------------------------|
------------------------------------------------------------------|
-4-4-4-4-6-4-6-6-7-7-7-7-6-7-6-6-4-4-4-4-6-4-6-6-7-7-7-7-6-7-6-6--|
------------------------------------------------------------------|


GT.1
-----------------------------------------------------------------|
-----------------------------------------------------------------|
-----------------------------------------------------------------|
---------7-7-7-7-6-6-6-6-7-7-7-7---------9-9-9-9-7-7-7-7-9-9-9-9\|
-7-7-7-7-------------------------9-9-9-9-------------------------|
-----------------------------------------------------------------|
GT.2
-----------------------------------------------------------------|
-----------------------------------------------------------------|
---------6-6-6-6-4-4-4-4-6-6-6-6---------7-7-7-7-6-6-6-6-7-7-7-7\|
-6-6-6-6-------------------------4-4-4-4-------------------------|
-----------------------------------------------------------------|
-----------------------------------------------------------------|


GT.1
------------------------------------------------------------------|
------------------------------------------------------------------|
------------------------------------------------------------------|
------------------------------------------------------------------|
-4-4-4-4-6-4-6-6-7-7-7-7-6-7-6-6-4-4-4-4-6-4-6-6-7-7-7-7-6-7-6-6--|
------------------------------------------------------------------|
GT.2
------------------------------------------------------------------|
------------------------------------------------------------------|
------------------------------------------------------------------|
------------------------------------------------------------------|
-4-4-4-4-6-4-6-6-7-7-7-7-6-7-6-6-4-4-4-4-6-4-6-6-7-7-7-7-6-7-6-6--|
------------------------------------------------------------------|


GT.1
------------------------------------------------------------------|
------------------------------------------------------------------|
------------------------------------------------------------------|
---------6-6-6-6-4-4-4-4-6-6-6-6---------7-7-7-7-6-6-6-6-7-7-7-7--|
-7-7-7-7-------------------------7-7-7-7--------------------------|
------------------------------------------------------------------|
GT.2
------------------------------------------------------------------|
------------------------------------------------------------------|
-----------------------------------------6-6-6-6-4-4-4-4-6-6-6-6--|
-6-6-6-6-9-9-9-9-8-8-8-8-9-9-9-9-6-6-6-6--------------------------|
------------------------------------------------------------------|
------------------------------------------------------------------|


GT.1
------------------------------------------------------------------|
------------------------------------------------------------------|
------------------------------------------------------------------|
------------------------------------------------------------------|
-4-4-4-4-6-4-6-6-7-7-7-7-6-7-6-6-4-4-4-4-6-4-6-6-7-7-7-7-6-7-6-6--|
------------------------------------------------------------------|
GT.2
------------------------------------------------------------------|
------------------------------------------------------------------|
------------------------------------------------------------------|
------------------------------------------------------------------|
-4-4-4-4-6-4-6-6-7-7-7-7-6-7-6-6-4-4-4-4-6-4-6-6-7-7-7-7-6-7-6-6--|
------------------------------------------------------------------|


GT.1
-----------------------------------------------------------------|
-----------------------------------------------------------------|
-----------------------------------------------------------------|
---------7-7-7-7-6-6-6-6-7-7-7-7---------9-9-9-9-7-7-7-7-9-9-9-9\|
-7-7-7-7-------------------------9-9-9-9-------------------------|
-----------------------------------------------------------------|
GT.2
-----------------------------------------------------------------|
-----------------------------------------------------------------|
---------6-6-6-6-4-4-4-4-6-6-6-6---------7-7-7-7-6-6-6-6-7-7-7-7\|
-6-6-6-6-------------------------4-4-4-4-------------------------|
-----------------------------------------------------------------|
-----------------------------------------------------------------|



BOTH
--------------------------------------------------------------------------------|
--------------------------------------------------------------------------------|
--------------------------------------------------------------------------------|
10-10-10-10-10-10-10-10-10-10-10-10-11-10-11-11-10-10-10-10-10-10-10-10-10-10-10|
-8--8--8--8--8--8--8--8--8--8--8--8--9--8--9--9--8--8--8--8--8--8--8--8--8--8--8|
--------------------------------------------------------------------------------|

------------------------------------------------------------------------|
------------------------------------------------------------------------|
------------------------------------------------------------------------|
10-10-10-10-11-10-11-11-13-13-13-13-13-13-13-13-13-13-13-13-12-12-13-13-|
-8--8--8--8--9--8--9--9-11-11-11-11-11-11-11-11-11-11-11-11-10-10-11-11-|
------------------------------------------------------------------------|

--------------------------------------------------|
--------------------------------------------------|
--------------------------------------------------|
-12-12-12-12-12-12-12-12-13-13-13-13-13-13-13-13--|
-10-10-10-10-10-10-10-10-11-11-11-11-11-11-11-11--|
--------------------------------------------------|

--------------------------------------------------------------------------------|
--------------------------------------------------------------------------------|
--------------------------------------------------------------------------------|
10-10-10-10-10-10-10-10-10-10-10-10-11-10-11-11-10-10-10-10-10-10-10-10-10-10-10|
-8--8--8--8--8--8--8--8--8--8--8--8--9--8--9--9--8--8--8--8--8--8--8--8--8--8--8|
--------------------------------------------------------------------------------|

-------------------------------------------|
-------------------------------------------|
-------------------------------------------|
10-10-10-10----------------------------7---|
-8--8--8--8-----6------5-------6---9---5---|
-------------8-----7-------8-------7---5---|

--------------------------------------------------------------------------------|
--------------------------------------------------------------------------------|
--------------------------------------------------------------------------------|
10-10-10-10-10-10-10-10-10-10-10-10-11-10-11-11-10-10-10-10-10-10-10-10-10-10-10|
-8--8--8--8--8--8--8--8--8--8--8--8--9--8--9--9--8--8--8--8--8--8--8--8--8--8--8|
--------------------------------------------------------------------------------|

------------------------------------------------------------------------|
------------------------------------------------------------------------|
------------------------------------------------------------------------|
10-10-10-10-11-10-11-11-13-13-13-13-13-13-13-13-13-13-13-13-12-12-13-13-|
-8--8--8--8--9--8--9--9-11-11-11-11-11-11-11-11-11-11-11-11-10-10-11-11-|
------------------------------------------------------------------------|

--------------------------------------------------|
--------------------------------------------------|
--------------------------------------------------|
-12-12-12-12-12-12-12-12-13-13-13-13-13-13-13-13--|
-10-10-10-10-10-10-10-10-11-11-11-11-11-11-11-11--|
--------------------------------------------------|

--------------------------------------------------------------------------------|
--------------------------------------------------------------------------------|
--------------------------------------------------------------------------------|
10-10-10-10-10-10-10-10-10-10-10-10-11-10-11-11-10-10-10-10-10-10-10-10-10-10-10|
-8--8--8--8--8--8--8--8--8--8--8--8--9--8--9--9--8--8--8--8--8--8--8--8--8--8--8|
--------------------------------------------------------------------------------|

-----------------------|
-----------------------|
-----------------------|
10-10-10-10-10--9-8-8--|
-8--8--8--8--8--7-6-6--|
-------------8--7-6-6--|



------------------------------------------------------------------|
------------------------------------------------------------------|
-----------------7-7-7-7-------------------------7-7-7-7----------|
---------7-7-7-7---------7-7-7-7---------7-7-7-7---------7-7-7-7--|
-5-5-5-5-------------------------5-5-5-5--------------------------|
------------------------------------------------------------------|

----------------------------------------------------------------------------|
----------------------------------------------------------------------------|
---------------------10-10-10-10---------------------8-8-8-8---------9-9-9-9|
---------10-10-10-10-------------10-10-10-10-----8-8-------------9-9--------|
-8-8-8-8-------------------------------------6-6-------------7-7------------|
----------------------------------------------------------------------------|

------------------------------------------------------------------|
------------------------------------------------------------------|
-----------------7-7-7-7-------------------------7-7-7-7----------|
---------7-7-7-7---------7-7-7-7---------7-7-7-7---------7-7-7-7--|
-5-5-5-5-------------------------5-5-5-5--------------------------|
------------------------------------------------------------------|

----------------------------------------------------------------------------|
----------------------------------------------------------------------------|
---------------------10-10-10-10---------------------8-8-8-8---------9-9-9-9|
---------10-10-10-10-------------10-10-10-10-----8-8-------------9-9--------|
-8-8-8-8-------------------------------------6-6-------------7-7------------|
----------------------------------------------------------------------------|

------------------------------------------------------------------|
------------------------------------------------------------------|
-----------------7-7-7-7-------------------------7-7-7-7----------|
---------7-7-7-7---------7-7-7-7---------7-7-7-7---------7-7-7-7--|
-5-5-5-5-------------------------5-5-5-5--------------------------|
------------------------------------------------------------------|

----------------------------------------------------------------------------|
----------------------------------------------------------------------------|
---------------------10-10-10-10---------------------8-8-8-8---------9-9-9-9|
---------10-10-10-10-------------10-10-10-10-----8-8-------------9-9--------|
-8-8-8-8-------------------------------------6-6-------------7-7------------|
----------------------------------------------------------------------------|

---------------------------------------------------------------------------|
---------------------------------------------------------------------------|
---------------------------------------------------------------------------|
--------------------------------  ----)(-------)(--------------------------|
-4---4---4---2--5-4-****-4-****-****-4---****-1---4-****-4-****-4-****-2-5-|
-2|--2|--2|--0--3-2-2222-2-2222-2355-----2355-----2-2222-2-2222-2-2222-0-3-|

----------------------------------------------------------------|
----------------------------------------------------------------|
----------------------------------------------------------------|
----------------------------------------------------------------|
---------------------------------2-2-2-2------------------------|
-1-1-1-1-4-4-4-4-3-3-3-3-4-4-4-4---------4-4-4-4-3-3-3-3-4-4-4-4|

----------------------------------------------------------------------------------|
----------------------------------------------------------------------------------|
----------------------------------------------------------------------------------|
----------------------------------------------)(-------)(-------------------------|
4-****-4-****-4-****-2--5-4-****-4-****-****-4---****-1---4-****-4-****-4-****-2-5|
2-2222-2-2222-2-2222-0--3-2-2222-2-2222-2355-----2355-----2-2222-2-2222-2-2222-0-3|

------------------------------------------------------------|
------------------------------------------------------------|
------------------------------------------------------------|
------------------------------------------------------------|
---------------------------------2-2-2-2----------^--4------|
-1-1-1-1-4-4-4-4-3-3-3-3-4-4-4-4---------4-4-4-4-3-4---6----|



GT.1
------------------------------------------------------------|
------------------------------------------------------------|
------------------------------------------------------------|
----------------------------9-8-----------------------------|
-9---8-9-8---7-8-7---6-7-6--7-6--9---8-9-8---7-8-7---3---4--|
-7---6-7-6---5-6-5---4-5-4--7-6--7---6-7-6---5-6-5---1---2--|
GT.2
--------------------------------------------------------------|
--------------------------------------------------------------|
--------------------------------------------------------------|
----------------------------9-8-------------------------------|
-9---8-9-9---8-9-9---6-7-6--7-6--9---8-9-9----8-9-9---3---4---|
-7---6-7-7---6-7-7---4-5-4--7-6--7---6-7-7----6-7-7---1---2---|


GT.1
---------------------------------------------------------------|
---------------------------------------------------------------|
---------------------------------------------------------------|
----------------------------9-8--------------------------------|
-9---8-9-8---7-8-7---6-7-6--7-6--9---8-9-8---7-8-7---3-3-3-4-4-|
-7---6-7-6---5-6-5---4-5-4--7-6--7---6-7-6---5-6-5---1-1-1-2-2-|
GT.2
-----------------------------------------------------------------|
-----------------------------------------------------------------|
-----------------------------------------------------------------|
----------------------------9-8----------------------------------|
-9---8-9-9---8-9-9---6-7-6--7-6--9---8-9-9----8-9-9---3-3-3-4-4--|
-7---6-7-7---6-7-7---4-5-4--7-6--7---6-7-7----6-7-7---1-1-1-2-2--|


GT.1
------------------------------------------------------------------|
------------------------------------------------------------------|
------------------------------------------------------------------|
------------------------------------------------------------------|
-4-4-4-4-6-4-6-6-7-7-7-7-6-7-6-6-4-4-4-4-6-4-6-6-7-7-7-7-6-7-6-6--|
------------------------------------------------------------------|
GT.2
------------------------------------------------------------------|
------------------------------------------------------------------|
------------------------------------------------------------------|
------------------------------------------------------------------|
-4-4-4-4-6-4-6-6-7-7-7-7-6-7-6-6-4-4-4-4-6-4-6-6-7-7-7-7-6-7-6-6--|
------------------------------------------------------------------|


GT.1
------------------------------------------------------------------|
------------------------------------------------------------------|
------------------------------------------------------------------|
---------6-6-6-6-4-4-4-4-6-6-6-6---------7-7-7-7-6-6-6-6-7-7-7-7--|
-7-7-7-7-------------------------7-7-7-7--------------------------|
------------------------------------------------------------------|
GT.2
------------------------------------------------------------------|
------------------------------------------------------------------|
-----------------------------------------6-6-6-6-4-4-4-4-6-6-6-6--|
-6-6-6-6-9-9-9-9-8-8-8-8-9-9-9-9-6-6-6-6--------------------------|
------------------------------------------------------------------|
------------------------------------------------------------------|


GT.1
------------------------------------------------------------------|
------------------------------------------------------------------|
------------------------------------------------------------------|
------------------------------------------------------------------|
-4-4-4-4-6-4-6-6-7-7-7-7-6-7-6-6-4-4-4-4-6-4-6-6-7-7-7-7-6-7-6-6--|
------------------------------------------------------------------|
GT.2
------------------------------------------------------------------|
------------------------------------------------------------------|
------------------------------------------------------------------|
------------------------------------------------------------------|
-4-4-4-4-6-4-6-6-7-7-7-7-6-7-6-6-4-4-4-4-6-4-6-6-7-7-7-7-6-7-6-6--|
------------------------------------------------------------------|


GT.1
-----------------------------------------------------------------|
-----------------------------------------------------------------|
-----------------------------------------------------------------|
---------7-7-7-7-6-6-6-6-7-7-7-7---------9-9-9-9-7-7-7-7-9-9-9-9\|
-7-7-7-7-------------------------9-9-9-9-------------------------|
-----------------------------------------------------------------|
GT.2
-----------------------------------------------------------------|
-----------------------------------------------------------------|
---------6-6-6-6-4-4-4-4-6-6-6-6---------7-7-7-7-6-6-6-6-7-7-7-7\|
-6-6-6-6-------------------------4-4-4-4-------------------------|
-----------------------------------------------------------------|
-----------------------------------------------------------------|


GT.1
------------------------------------------------------------------|
------------------------------------------------------------------|
------------------------------------------------------------------|
------------------------------------------------------------------|
-4-4-4-4-6-4-6-6-7-7-7-7-6-7-6-6-4-4-4-4-6-4-6-6-7-7-7-7-6-7-6-6--|
------------------------------------------------------------------|
GT.2
------------------------------------------------------------------|
------------------------------------------------------------------|
------------------------------------------------------------------|
------------------------------------------------------------------|
-4-4-4-4-6-4-6-6-7-7-7-7-6-7-6-6-4-4-4-4-6-4-6-6-7-7-7-7-6-7-6-6--|
------------------------------------------------------------------|


GT.1
------------------------------------------------------------------|
------------------------------------------------------------------|
------------------------------------------------------------------|
---------6-6-6-6-4-4-4-4-6-6-6-6---------7-7-7-7-6-6-6-6-7-7-7-7--|
-7-7-7-7-------------------------7-7-7-7--------------------------|
------------------------------------------------------------------|
GT.2
------------------------------------------------------------------|
------------------------------------------------------------------|
-----------------------------------------6-6-6-6-4-4-4-4-6-6-6-6--|
-6-6-6-6-9-9-9-9-8-8-8-8-9-9-9-9-6-6-6-6--------------------------|
------------------------------------------------------------------|
------------------------------------------------------------------|


GT.1
------------------------------------------------------------------|
------------------------------------------------------------------|
------------------------------------------------------------------|
------------------------------------------------------------------|
-4-4-4-4-6-4-6-6-7-7-7-7-6-7-6-6-4-4-4-4-6-4-6-6-7-7-7-7-6-7-6-6--|
------------------------------------------------------------------|
GT.2
------------------------------------------------------------------|
------------------------------------------------------------------|
------------------------------------------------------------------|
------------------------------------------------------------------|
-4-4-4-4-6-4-6-6-7-7-7-7-6-7-6-6-4-4-4-4-6-4-6-6-7-7-7-7-6-7-6-6--|
------------------------------------------------------------------|


GT.1
-----------------------------------------------------------------|
-----------------------------------------------------------------|
-----------------------------------------------------------------|
---------7-7-7-7-6-6-6-6-7-7-7-7---------9-9-9-9-7-7-7-7-9-9-9-9\|
-7-7-7-7-------------------------9-9-9-9-------------------------|
-----------------------------------------------------------------|
GT.2
-----------------------------------------------------------------|
-----------------------------------------------------------------|
---------6-6-6-6-4-4-4-4-6-6-6-6---------7-7-7-7-6-6-6-6-7-7-7-7\|
-6-6-6-6-------------------------4-4-4-4-------------------------|
-----------------------------------------------------------------|
-----------------------------------------------------------------|



BOTH
--------------------------------------------------------------------------------|
--------------------------------------------------------------------------------|
--------------------------------------------------------------------------------|
10-10-10-10-10-10-10-10-10-10-10-10-11-10-11-11-10-10-10-10-10-10-10-10-10-10-10|
-8--8--8--8--8--8--8--8--8--8--8--8--9--8--9--9--8--8--8--8--8--8--8--8--8--8--8|
--------------------------------------------------------------------------------|

------------------------------------------------------------------------|
------------------------------------------------------------------------|
------------------------------------------------------------------------|
10-10-10-10-11-10-11-11-13-13-13-13-13-13-13-13-13-13-13-13-12-12-13-13-|
-8--8--8--8--9--8--9--9-11-11-11-11-11-11-11-11-11-11-11-11-10-10-11-11-|
------------------------------------------------------------------------|

--------------------------------------------------|
--------------------------------------------------|
--------------------------------------------------|
-12-12-12-12-12-12-12-12-13-13-13-13-13-13-13-13--|
-10-10-10-10-10-10-10-10-11-11-11-11-11-11-11-11--|
--------------------------------------------------|

--------------------------------------------------------------------------------|
--------------------------------------------------------------------------------|
--------------------------------------------------------------------------------|
10-10-10-10-10-10-10-10-10-10-10-10-11-10-11-11-10-10-10-10-10-10-10-10-10-10-10|
-8--8--8--8--8--8--8--8--8--8--8--8--9--8--9--9--8--8--8--8--8--8--8--8--8--8--8|
--------------------------------------------------------------------------------|

-------------------------------------------|
-------------------------------------------|
-------------------------------------------|
10-10-10-10----------------------------7---|
-8--8--8--8-----6------5-------6---9---5---|
-------------8-----7-------8-------7---5---|

--------------------------------------------------------------------------------|
--------------------------------------------------------------------------------|
--------------------------------------------------------------------------------|
10-10-10-10-10-10-10-10-10-10-10-10-11-10-11-11-10-10-10-10-10-10-10-10-10-10-10|
-8--8--8--8--8--8--8--8--8--8--8--8--9--8--9--9--8--8--8--8--8--8--8--8--8--8--8|
--------------------------------------------------------------------------------|

------------------------------------------------------------------------|
------------------------------------------------------------------------|
------------------------------------------------------------------------|
10-10-10-10-11-10-11-11-13-13-13-13-13-13-13-13-13-13-13-13-12-12-13-13-|
-8--8--8--8--9--8--9--9-11-11-11-11-11-11-11-11-11-11-11-11-10-10-11-11-|
------------------------------------------------------------------------|

--------------------------------------------------|
--------------------------------------------------|
--------------------------------------------------|
-12-12-12-12-12-12-12-12-13-13-13-13-13-13-13-13--|
-10-10-10-10-10-10-10-10-11-11-11-11-11-11-11-11--|
--------------------------------------------------|

--------------------------------------------------------------------------------|
--------------------------------------------------------------------------------|
--------------------------------------------------------------------------------|
10-10-10-10-10-10-10-10-10-10-10-10-11-10-11-11-10-10-10-10-10-10-10-10-10-10-10|
-8--8--8--8--8--8--8--8--8--8--8--8--9--8--9--9--8--8--8--8--8--8--8--8--8--8--8|
--------------------------------------------------------------------------------|

-------------------------------------------|
-------------------------------------------|
-------------------------------------------|
10-10-10-10-10--9-8-8-10-9-8-7-------------|
-8--8--8--8--8--7-6-6--8-7-6-5-2-----------|
-------------8--7-6-6--8-7-6-5-0-----------|


5:53
-----------------------------------------------------------------------|
-----------------------------------------------------------------------|
-----------------------------------------------------------------------|
-11------------------1111-10------------------1010-9-------------------|
--9-*****-*****-*-*-*-9-9--8-*****-*****-*-*-*-8-8-7-*****-*****-*-*-*-|
--9-11111-11111-1-1-1-9-9--8-66666-66666-6-6-6-8-8-7-33333-33333-3-3-3-|

                          REPEATS TIL END
------------------------|---------------------------------------------------|
------------------------|---------------------------------------------------|
------------------------|---------------------------------------------------|
-9-9-8------------------|-7-1211------------------1111-10-------------------|
-7-7-6-*****-*****-*-*-*|-5-10-9-*****-*****-*-*-*-9-9--8-*****-*****-*-*-*-|
-7-7-6-11111-11111-1-1-1|-5-10-9-00000-00000-0-0-0-9-9--8-66666-66666-6-6-6-|


---------------------------------------------------|
---------------------------------------------------|
---------------------------------------------------|
1010-9-------------------9-9-8---------------------|
-8-8-7-*****-*****-*-*-*-7-7-6-*****-*****-*-*-*---|
-8-8-7-33333-33333-3-3-3-7-7-6-11111-11111-1-1-1---|


comments
We did not receive enough feedback on this tab! Please rate:
print report bad tab
1 2 3 4 5
I want to post or [tab]
guest
You may want to rate the tab now too:
select rating
Please do not post tabs as comments. Select "correction" instead!