Oops, an error
Loading. Please wait.

Nemesis Tab

ver2
ver2

Whole song

More versions @911Tabs.com
4,080 views 6 this week
no commentswrite comment
1 2 3 4 5
accurate
x 2
Autoscroll
+/-
esc
set tempo
stop
Contributor
WARNING: You are trying to view
                                    content from Ultimate-Guitar.com
                                    in an unauthorized application,
                                    which is prohibited.

                                    Please use an official Ultimate
                                    Guitar Tabs application for iPhone,
                                    iPad or Android to access legitimate
                                    chords, guitar, bass, and drum tabs
                                    from Ultimate-Guitar.com database.

                                    Type "ultimate guitar tabs" in Apple
                                    App Store's or Android Market's
                                    search to find the application.
-------------------------------------------------------------------------------
                             Nemesis - Cradle of Filth
-------------------------------------------------------------------------------
Tabbed by:sesemia
Email:nicelittlebootyforyou@yahoo.com

Tuning: high to low D,A,F,C,G,C

Intro
D|-------------------------------------------------------------------------------|
A|-------------------------------------------------------------------------------|
F|-------------------------------------------------------------------------------|
C|-2------5----------------------------------------------------------------------|
G|-2------3------3---------3-----------------------------------------------------|
C|-2------5------6---------6-----------------------------------------------------|

Riff 1
D|--------------------------------------------------------------------------|
A|--------------------------------------------------------------------------|
F|--9------11---12----11---8------------------------------------------------|
C|-----------------------------9--6-----------------------------------------|X2
G|--------------------------------------------------------------------------|
C|--------------------------------------------------------------------------|

Riff 2
D|--------------------------------------------------------------------------|
A|--------------------------------------------------------------------------|
F|--------------------------------------------------------------------------|
C|--2-2-2-2-2-5-4-4-4-4-5-4-------------------------------------------------| X4
G|--------------------------------------------------------------------------|
C|--------------------------------------------------------------------------|

D|--------------------------------------------------------------------------|
A|--------------------------------------------------------------------------|
F|--------------------------------------------------------------------------|
C|-7-7-7-7-7-10-9-9-9-9-10-9------------------------------------------------|X2
G|--------------------------------------------------------------------------|
C|--------------------------------------------------------------------------|

D|---------------------------------------------------------------------------|
A|---------------------------------------------------------------------------|
F|---------------------------------------------------------------------------|
C|--5----------5------------5-------9---------------9---9---9----------------|
G|--5----------5------------5-------9---9--9--9-9---9---9---9----------------|
C|--5---5--5---5----5--5----5-------9---9--9--9-9---9---9---9----------------|
                                                 PM -------------------------|

D|--777777555555777777888888------------------------------------------------|
A|--------------------------------------------------------------------------|
F|--------------------------------------------------------------------------|X2
C|--------------------------------------------------------------------------|
G|--------------------------------------------------------------------------|
C|--------------------------------------------------------------------------|

D|-101010101010777777888888555555777777888888555555777777555555-------------|
A|--------------------------------------------------------------------------|
F|--------------------------------------------------------------------------|
C|--------------------------------------------------------------------------|
G|--------------------------------------------------------------------------|
C|--------------------------------------------------------------------------|

D|-------------------------------55555777777777777777777777777778757-(7)----|
A|-777777888888555555777777888888-------------------------------------------|
F|--------------------------------------------------------------------------|
C|--------------------------------------------------------------------------|
G|--------------------------------------------------------------------------|
C|--------------------------------------------------------------------------|


D|--------------------------------------------------------------------------|
A|--------------------------------------------------------------------------|
F|--------------------------------------------------------------------------|
C|-2-2-2-2-2-5-4-4-4-4-5-4--------------------------------------------------|X4
G|--------------------------------------------------------------------------|
C|--------------------------------------------------------------------------|

D|--------------------------------------------------------------------------|
A|--------------------------------------------------------------------------|
F|--------------------------------------------------------------------------|
C|-7-7-7-7-7-10-9-9-9-9-10-9------------------------------------------------|X2
G|--------------------------------------------------------------------------|
C|--------------------------------------------------------------------------|

D|---------------------------------------------------------------------------|
A|---------------------------------------------------------------------------|
F|---------------------------------------------------------------------------|
C|-5--------5--5------9--------------9--9--9---------------------------------|
G|-5--------5--5------9--9--9--9--9--9--9--9---------------------------------|
C|-5--5--5--5--5------9--9--9--9--9--9--9--9---------------------------------|
                                   PM----------------------------------------|

D|--------------------------------------------------------------------------|
A|--------------------------------------------------------------------------|
F|---5--4--2--4--2--0-------------------------------------------------------|
C|---------------------4--5-------------------------------------------------|X2
G|--------------------------------------------------------------------------|
C|--------------------------------------------------------------------------|

D|--------------------------------------------------------------------------|
A|--------------------------------------------------------------------------|
F|-----------2--------2-----------------------------------------------------|
C|--4--4--5-----4--5--------------------------------------------------------|
G|--------------------------------------------------------------------------|
C|--------------------------------------------------------------------------|

D|--------------------------------------------------------------------------|
A|--------------------------------------------------------------------------|
F|--5--4--2--4--2--0--------------------------------------------------------|
C|--------------------4--5--------------------------------------------------|
G|--------------------------------------------------------------------------|
C|--------------------------------------------------------------------------|

D|--------------------------------------------------------------------------|
A|--------------------3-----------------------------------------------------|
F|-----------2--4--5-----4--------------------------------------------------|
C|--5--4--5-----------------------------------------------------------------|
G|--------------------------------------------------------------------------|
C|--------------------------------------------------------------------------|

D|----------0--0/2-----0-----------------------------------------------------|
A|-------3----------3--------------------------------------------------------|
F|-5--4----------------------------------------------------------------------|
C|---------------------------------------------------------------------------|
G|----------------------------------------------5--------5-5-5-5-------------|
C|-----------------------------10-------10------5---4-4--5-5-5-5----10----10-|
                                                       PM--------------------|

D|------------4--3--1--3--1-----1-----------1--3----------------------------|
A|---------------------------4-----4--3--4----------------------------------|
F|--------------------------------------------------------------------------|
C|-3------------------------------------------------------------------------|
G|-3------------------------------------------------------------------------|
C|-3------------------------------------------------------------------------|

D|-------------111133331111----1111-----------------------------------------|
A|-444444444444------------4444-----------------------3--1-----1------------|
F|---------------------------------3333333333333333---------3-----3--0------|
C|--------------------------------------------------------------------------|
G|--------------------------------------------------------------------------|
C|--------------------------------------------------------------------------|

D|-------------111133331111----11111111111111111111-------------------------|
A|-444444444444------------4444---------------------------------------------|
F|--------------------------------------------------------------------------|
C|--------------------------------------------------------------------------|
G|--------------------------------------------------------------------------|
C|--------------------------------------------------------------------------|

D|-4--3--1--3--1-----1-----1-----1--4---------------------------------------|
A|----------------4-----4-----4---------------------------------------------|
F|--------------------------------------------------------------------------|
C|--------------------------------------------------------------------------|X2
G|--------------------------------------------------------------------------|
C|--------------------------------------------------------------------------|

D|--------------------------------------------------------------------------|
A|--------------------------------------------------------------------------|
F|3----------5b--5--3--5----(3)----4--1-------------------------------------|
C|--------------------------------------------------------------------------|
G|--------------------------------------------------------------------------|
C|--------------------------------------------------------------------------|

D|-----------------------------------------------------2--------------------|
A|-----------------------------------------4--6--7--7-----------------------|
F|----3--5--6b--5-----------------3--5--6-----------------------------------|
C|-4---------------3--1--3--1-----------------------------------------------|
G|-----------------------------1--------------------------------------------|
C|--------------------------------------------------------------------------|

D|-5--6--8--5--8--9--11--8--9--8--------------------------------------------|
A|--------------------------------10--11------------------------------------|
F|--------------------------------------------------------------------------|
C|--------------------------------------------------------------------------|
G|--------------------------------------------------------------------------|
C|----------------------------------------2--5------------------------------|

D|--------------------------------------------------------------------------|
A|--------------------------------------------------------------------------|
F|--------------------------------------------------------------------------|
C|----------0--0-----------0--0----------------0--0-------------------------|X3
G|-1--1--1--0--0--2--2--2--0--0--4--4\1--1--1--0--0--2--2--2----------------|
C|-3--3--3--------4--4--4--------6--6\3--3--3--------4--4--4--3-2-5---------|

D|--------------------------------------------------------------------------|
A|--------------------------------------------------------------------------|
F|--------------------------------9---11--12--11--8-------------------------|
C|-2------5------------------------------------------9--6-------------------|X2
G|-2------3------3------3---------------------------------------------------|
C|-2------5------6------6---------------------------------------------------|


D|-----------------------0-0/2----0-----------------------------------------|
A|---------0-1-3-0-1-0-3-------3--------------------------------------------|
F|-------2-----------------------------5------------------------------------|
C|-5-4-5-------------------------------3------------------------------------|
G|-------------------------------------3------------------------------------|
C|--------------------------------------------------------------------------|

then the song just repeats e-mail me if you need somthing!
comments
We did not receive enough feedback on this tab! Please rate:
print report bad tab
1 2 3 4 5
I want to post or [tab]
guest
You may want to rate the tab now too:
select rating
Please do not post tabs as comments. Select "correction" instead!