Oops, an error
Loading. Please wait.

Nymphetamine Tab

7,820 views 1 this week
2 commentsread comments
1 2 3 4 5
worth learning
x 1
Autoscroll
+/-
esc
set tempo
stop
Contributor
Difficulty
intermediate
WARNING: You are trying to view
                                    content from Ultimate-Guitar.com
                                    in an unauthorized application,
                                    which is prohibited.

                                    Please use an official Ultimate
                                    Guitar Tabs application for iPhone,
                                    iPad or Android to access legitimate
                                    chords, guitar, bass, and drum tabs
                                    from Ultimate-Guitar.com database.

                                    Type "ultimate guitar tabs" in Apple
                                    App Store's or Android Market's
                                    search to find the application.
Tuning: C G C F A D

INTRO
Gtr 1 & 2
1|---------------------|| --------------------------------- ||
2|---------------------||*---------------------------------*||
3|---------------------|| -------0-------0-------0-------0- ||
4|-7--7--7-7-7-8-8-----|| -----4-------4-------4-------4--- ||x4
5|-5--5--5-5-5/6-6-2~--||*---4-------4-------4-------4-----*||
6|---------------------|| -4-------5-------4-------2------- ||

Gtr 1
1|--------------------------|
2|--------------------------|
3|--------------------------|
4|-2-----------5-4-2-4-2-1~-|
5|-2---------2--------------|
6|-2------------------------|
 |
 |
1|--------------------------|
2|--------------------------|
3|--------------------------|
4|-2-----------5-4-2-4-2----|
5|-2---------2-----------3~-|
6|-2------------------------|

VERSE 1 x5
1|--------------------------------------------|
2|--------------------------------------------|
3|--------------------------------------------|
4|-------------------------------5-4-2-4-2-1~-|
5|-02-04\3-3-02-06\5-5-02-04\3-3--------------|
6|-02-04\3-3-02-06\5-5-02-04\3-3--------------|
 | x  x      x  x      x  x
 |
1|--------------------------------------------|
2|--------------------------------------------|
3|--------------------------------------------|
4|-------------------------------5-4-2-4-2----|
5|-02-04\3-3-02-06\5-5-02-04\3-3-----------3~-|
6|-02-04\3-3-02-06\5-5-02-04\3-3--------------|
   x  x      x  x      x  x

VERSE 2 x4
1|-222222222222111111111111-------------------------|
2|-------------------------333333333333-------------|
3|--------------------------------------------------|
4|--------------------------------------------------|
5|-------------------------------------333333333333-|
6|-------------------------------------333333333333-|
                                       xxxxxxxxxxxx
VERSE 1 x4

1|-------------|
2|-------------|
3|-------------|
4|-2-----------|
5|-2----X\\\\\-|
6|-2----X\\\\\-|

VERSE 3a
1|-----------------------------|
2|-----------------------------|
3|-----------------------------|
4|-2------------------6---6--3-|
5|-2--5-4-2-4-5-4-2-4-6---6--3-|
6|-2--5-4-2-4-5-4-2-4-6---6--3-|
      x x x x x x x x

VERSE 3b x3
1|-------------------------------------------------------------|
2|-------------------------------------------------------------|
3|-------------------------------------------------------------|
4|-2------------------5--555555000000-----------------6---6--3-|
5|-2--5-4-2-4-5-4-2-4-5---------------5-4-2-4-5-4-2-4-6---6--3-|
6|-2--5-4-2-4-5-4-2-4-5---------------5-4-2-4-5-4-2-4-6---6--3-|
      x x x x x x x x                 x x x x x x x x

1|---|
2|---|
3|---|
4|-0-|
5|-0-|
6|-0-|

VERSE 4a x4
1|-----------------------------------------------|
2|-----------------------------------------------|
3|-----------------------------------------------|
4|-0----------3----------8----------5----------0-|
5|-0----------3----------8----------5----------0-|
6|-0----------3----------8----------5----------0-|

VERSE 4b
  Gtr 1
1|---------------------------------------------------------------------|
2|-6-5-6---6-5-6-5-6---6-5-6-5-6---6-5-6-5-6---6-5-6-5-6---6-5-6-5-6---|
3|-------7-----------7-----------5-----------5-----------3-----------3-|
4|---------------------------------------------------------------------|
5|---------------------------------------------------------------------|
6|---------------------------------------------------------------------|
 |
 |Gtr 2
1|-5-3-5---5-3-5-3-5---5-3-5-3-5---5-3-5-3-5---5-3-5-3-5---5-3-5-3-5---|
2|-------6-----------6-----------5-----------5-----------3-----------3-|
3|---------------------------------------------------------------------|
4|---------------------------------------------------------------------|
5|---------------------------------------------------------------------|
6|---------------------------------------------------------------------|

1|-----------------------------|
2|-6-5-6-5-6---6-5-6-5-6-8-6-5-|
3|-----------2-----------------|
4|-----------------------------|
5|-----------------------------|
6|-----------------------------|
 |
 |
1|-5-3-5-3-5---5-3-5-3-5-6-5-3-|
2|-----------6-----------------|
3|-----------------------------|
4|-----------------------------|
5|-----------------------------|
6|-----------------------------|

VERSE 4c
Gtr 1 & 2 
1|-------------------------------------------------|
2|-------------------------------------------------|
3|-------------------------------------------------|
4|-------------------------------------------------|
5|-7-7-7-7-7-7-5-5-5-5-5-5-7-7-7-7-7-7-3-3-3-3-3-3-|
6|-7-7-7-7-7-7-5-5-5-5-5-5-7-7-7-7-7-7-3-3-3-3-3-3-|
   x x x x x x x x x x x x x x x x x x x x x x x x

1|-------------------------------------------------|
2|-------------------------------------------------|
3|-------------------------------------------------|
4|-------------------------------------------------|
5|-7-7-7-7-7-7-5-5-5-5-5-5-3-3-3-3-3-3-5-5-5-5-5-5-|
6|-7-7-7-7-7-7-5-5-5-5-5-5-3-3-3-3-3-3-5-5-5-5-5-5-|
   x x x x x x x x x x x x x x x x x x x x x x x x

  Gtr 1
1|------7-7h8p7----7-----------------7-7h8p7----10~~~~12-12\-|
2|---10---------10---10-8~~~~~~---10---------10--------------|
3|-----------------------------------------------------------|
4|-----------------------------------------------------------|
5|-----------------------------------------------------------|
6|-----------------------------------------------------------|
 |
 |Gtr 2 
1|-----------------------------------------------------------|
2|-----------------------------------------------------------|
3|-----------------------------------------------------------|
4|-----------------------------------------------------------|
5|-7-7--7-7---7-7--5-5--5-5-5-5-7-7--7-7---7-7--3-3-3-3--3-3-|
6|-7-7--7-7---7-7--5-5--5-5-5-5-7-7--7-7---7-7--3-3-3-3--3-3-|
   x x  x x   x x  x x  x x x x x x  x x   x x  x x x x  x x

1|------7-7h8p7----7-----------8---7-------10--8---7---|
2|---10---------10-----10--8-----------10--------------|
3|-----------------------------------------------------|
4|-----------------------------------------------------|
5|-----------------------------------------------------|
6|-----------------------------------------------------|
 |
 |
1|-----------------------------------------------------|
2|-----------------------------------------------------|
3|-----------------------------------------------------|
4|-----------------------------------------------------|
5|-7-7--7-7---7-7--5-5-5-5-5-5-3-3-3-3-3-3-5-5-5-5-5-5-|
6|-7-7--7-7---7-7--5-5-5-5-5-5-3-3-3-3-3-3-5-5-5-5-5-5-|
   x x  x x   x x  x x x x x x

VERSE 4d
1|-------------------------------------------1---3---|
2|-----------------5---6---5~~~~-6p5\3~~~~-3---------|
3|-5-----7-7~~~~~~-----------------------------------|
4|---------------------------------------------------|
5|---------------------------------------------------|
6|---------------------------------------------------|
 |
 |
1|---------------------------------------------------|
2|-10~~~~~~~~~~~~~~~~~~~~~~~~~~~~~~~~--------6---8---|
3|-----------------------------------------7---------|
4|---------------------------------------------------|
5|---------------------------------------------------|
6|---------------------------------------------------|

1|-1~~~~-3p1p0-----0-5---6---5~~~~-6p5\3~~~~~~-3---3-5~~~-|
2|-----------------------------------------------6--------|
3|--------------------------------------------------------|
4|--------------------------------------------------------|
5|--------------------------------------------------------|
6|--------------------------------------------------------|
 |
 |
1|-------------------5---6---5~~~~-6p5\3~~~~~~-3---3-5~~~-|
2|-6~~~~-8p6\5~~~~-5-----------------------------6--------|
3|--------------------------------------------------------|
4|--------------------------------------------------------|
5|--------------------------------------------------------|
6|--------------------------------------------------------|

VERSE 4e
1|-------------------------------------------1---3---|
2|-----------------5---6---5~~~~-6p5\3~~~~-3---------|
3|-5-----7-7~~~~~~-----------------------------------|
4|---------------------------------------------------|
5|---------------------------------------------------|
6|---------------------------------------------------|
 |
 |
1|-----------------5---6---5~~~~-6p5---------5---6---|
2|-5-----6-6~~~~~~-------------------6~~~~-6---------|
3|---------------------------------------------------|
4|---------------------------------------------------|
5|---------------------------------------------------|
6|---------------------------------------------------|

1|-1~~~~-3p1p0-----0-5---6----5~~~~-6p-5\3~~~~~~-3----3-5~~~-|
2|--------------------------------------------------6--------|
3|-----------------------------------------------------------|
4|-----------------------------------------------------------|
5|-----------------------------------------------------------|
6|-----------------------------------------------------------|
 |
 |
1|-5~~~~-6p5---------8---10---8~~~~-10p8-10~~~~~-10----------|
2|-----------8~~~~-8--------------------------------6-8-10~~-|
3|-----------------------------------------------------------|
4|-----------------------------------------------------------|
5|-----------------------------------------------------------|
6|-----------------------------------------------------------|

1|---------|
2|---------|
3|---------|
4|-5-----5-|
5|-3-----3-|
6|---------|
 |
 |
1|---------|
2|---------|
3|---------|
4|---------|
5|-10---10-|
6|-10---10-|

VERSE 4f
1|-------------------------|    ---------------------------------------------|
2|-------------------------|    ---------------------------------6-5-6-8-6-5-|
3|-------------------------|    ---------------------------------------------|
4|-9------8------5------6--|x4  -0-------------------------------------------|
5|-7------6------3------4--|    -0-------------------------------------------|
6|-------------------------|    -0-------------------------------------------|
 |
 |
1|-------------------------|    ---------------------------------------------|
2|-------------------------|    ---------------------------------5-3-5-6-5-3-|
3|-------------------------|    ---------------------------------------------|
4|-------------------------|x4  -0-------------------------------------------|
5|-14-----13-----10-----11-|    -0-------------------------------------------|
6|-14-----13-----10-----11-|    -0-------------------------------------------|

1|| ---------------------------------------------------------------------|
2||*-6-5-6---6-5-6-5-6---6-5-6-5-6---6-5-6-5-6---6-5-6-5-6---6-5-6-5-6---|
3|| -------7-----------7-----------5-----------5-----------3-----------3-|
4|| ---------------------------------------------------------------------|
5||*---------------------------------------------------------------------|
6|| ---------------------------------------------------------------------|
 |
 |
1|| -5-3-5---5-3-5-3-5---5-3-5-3-5---5-3-5-3-5---5-3-5-3-5---5-3-5-3-5---|
2||*-------6-----------6-----------5-----------5-----------3-----------3-|
3|| ---------------------------------------------------------------------|
4|| ---------------------------------------------------------------------|
5||*---------------------------------------------------------------------|
6|| ---------------------------------------------------------------------|

1|----------------------------- ||
2|-6-5-6-5-6---6-5-6-5-6-8-6-5-*||
3|-----------2----------------- ||
4|----------------------------- ||
5|-----------------------------*||
6|----------------------------- ||
 |
 |
1|-5-3-5-3-5---5-3-5-3-5-6-5-3- ||
2|-----------6-----------------*||
3|----------------------------- ||
4|----------------------------- ||
5|-----------------------------*||
6|----------------------------- ||

VERSE 4c
VERSE 4d

Gtr 1 & 2
1|-------------------------------------------1---3---|
2|-----------------5---6---5~~~~-6p5\3~~~~-3---------|
3|-5-----7-7~~~~~~-----------------------------------|
4|---------------------------------------------------|
5|---------------------------------------------------|
6|---------------------------------------------------|

1|-1~~~~-3p1p0-----0-5---6---5~~~~-6p5\3~~~~~~-3---3-5~~~-|
2|-----------------------------------------------6--------|
3|--------------------------------------------------------|
4|--------------------------------------------------------|
5|--------------------------------------------------------|
6|--------------------------------------------------------|

VERSE 4e x2

1|-----------|
2|-----------|
3|-----------|
4|-5-----5-0-|
5|-3-----3-0-|
6|---------0-|
 |
 |
1|-----------|
2|-----------|
3|-----------|
4|---------0-|
5|-10---10-0-|
6|-10---10-0-|

Gtr 1 & 2
1|---------------------------------|
2|---------------------------------|
3|-------0-------0-------0-------0-|
4|-----4-------4-------4-------4---|x2
5|---4-------4-------4-------4-----|
6|-4-------5-------4-------2-------|

1|---------------------|| --------------------------------- ||    
2|---------------------||*---------------------------------*||    
3|---------------------|| -------0-------0-------0-------0- ||    
4|-7--7--7-7-7-8-8-----|| -----4-------4-------4-------4--- ||x4  
5|-5--5--5-5-5/6-6-2~--||*---4-------4-------4-------4-----*||    
6|---------------------|| -4-------5-------4-------2------- ||    

1|-------------|
2|-------------|
3|-------------|
4|-2-----------|
5|-2----X\\\\\-|
6|-2----X\\\\\-|

VERSE 3a
VERSE 3b x3

Gtr 1 & 2
1|-------------------------------|
2|-------------------------------|
3|-------------------------------|
4|-------------------------------|
5|-02-04\3-3-02-06\5-5-02-04\3-3-|
6|-02-04\3-3-02-06\5-5-02-04\3-3-|
   x  x      x  x      x  x

VERSE 1a x3
VERSE 1b (hold vibrato)
comments
We did not receive enough feedback on this tab! Please rate:
print report bad tab
1 2 3 4 5
2 comments total.
0 reply
Gothic_Chimp wrote on December 18 2009, 04:08 pm

That verse 1 riff actually goes like this

|--------------------------------|
|--------------------------------|
|--------------------------------|
|-----4---------6---------4------|
|---2-2-3-3---2-4-5-5---2-2-3-3--|
|-0-2---3-3-0-2---5-5-0-2---3-3--|
. . .

Other than that quite good =]

0 reply
Gothic_Chimp wrote on December 18 2009, 04:09 pm

Tabs never come out right.

All the open strings should be palm muted.

I want to post or [tab]
guest
You may want to rate the tab now too:
select rating
Please do not post tabs as comments. Select "correction" instead!