Oops, an error
Loading. Please wait.

Summer Dying Fast Tab

ver2
ver2

Whole song

Interactive

More versions @911Tabs.com
276 views 1 this week
no commentswrite comment
1 2 3 4 5
please rate
Autoscroll
+/-
esc
set tempo
stop
Difficulty
intermediate
Hey! There's an official Ultimate Guitar app which is ideal
for learning songs when you're away from computer. Get the app
WARNING: You are trying to view
                                    content from Ultimate-Guitar.com
                                    in an unauthorized application,
                                    which is prohibited.

                                    Please use an official Ultimate
                                    Guitar Tabs application for iPhone,
                                    iPad or Android to access legitimate
                                    chords, guitar, bass, and drum tabs
                                    from Ultimate-Guitar.com database.

                                    Type "ultimate guitar tabs" in Apple
                                    App Store's or Android Market's
                                    search to find the application.
downloaded from the Catacombs of Displacer's Death Tab Site at
        http://www.dsrmusic.com/metaltab
join the death/black tab emailing list by filling out the free
subscription form at http://www.dsrmusic.com/metaltab/join.htm

Track: Summer Dying Fast
Artist: Cradle of Filth
Transcribed: Nocturnal Heartbeat (ghostwhowalks@lightspeed.bc.ca)

1. Note that there may be mistakes, and I may play some parts differently
   from others. All corrections and suggestions are welcome.

2. As always with Cradle of Filth songs, there are keyboard intros
   and interludes. I have tried my best to capture the original
   sound with the guitar.

3. All the symbols used in this tablature:

pm: palm mute
...: play many times
/: slide

4. For those parts played more than once, please listen to the song itself.
   It should be simple to figure out how many times you need to play the
   part. And it goes the same for the case when the guitar plays thrills.

Tune down a whole step.

 Figure A: Intro guitar riff after the drum solo.
 This is a part I'm not really sure about. The guitar sound is a bit fuzzy
 here... That's probably why... not really a good excuse, huh? In any case,
 this is how I play it; of course, to figure out the rhythm, listen to the
 song. In fact, it's quite straightforward. All you need are just blazing
 up and down strokes... Anyone kind enough to let me know how it's actually
 done, BIG "THANK YOU".

-------------------------------------------------|
-------------------------------------------------|
-------------------------------------------------|
--9999999910101010101010101010101099999999999999-|
--7777777777777777777777776-6-6-6-77777777777777-|
-------------------------------------------------|

-------------------------------------|
-------------------------------------|
-------------------------------------|
--7777777788888888888877777777777777-|
--5555555555555555444455555555555555-|
-------------------------------------|

 Figure B: Following guitar riff.
 ---------------------------------------------------------------------|
 ---------------------------------------------------------------------|
 -------------------------------9999-10101010-9999--------------------|
 -------9999-10101010-9999-7777---------------------------------------|
 --7777---------------------------------------------------------------|
 ---------------------------------------------------------------------|

 Figure C: Keyboard part.
 I've said this million times but I'll say it again. As for all the
 keyboard parts, it just doesn't sound like the original when played on
 guitar... But what can I say? I just wanna play the whole damn song...
 Palm mute all the way.

 --------------------|-------------------------------------------------|
 --------------------|-------------------------------------------------|
 --------------------|-------------------------------------------------|
 -----7-9-10-9-7-----|-------7-9-7-------------------------------------|
 --10------------10--|--9-10-------10-9--------------------------------|
 --------------------|-------------------------------------------------|

 Figure D: This is played along with Figure C. Just power chords will do...
 ----------------------------------------------------------------------|
 ----------------------------------------------------------------------|
 ----------------------------------------------------------------------|
 --2--8----------------------------------------------------------------|
 --2--6----------------------------------------------------------------|
 --0--0----------------------------------------------------------------|

 Figure E: Another keyboard part...
 -----|----------------------------------------------------------------|
 -----|----------------------------------------------------------------|
 -----|----------------------------------------------------------------|
 --9--|--7-000-5-0000-4-0000-2-0000-1-0000-2-0000-4-0000-5-0000--------|
 -----|----------------------------------------------------------------|
 -----|----------------------------------------------------------------|
        Play this twice. Second time around, don't play that ninth note.

 ------------------------------|---------------------------------------|
 ------------------------------|---------------------------------------|
 ------------------------------|---------------------------------------|
 -7-0000-5-0000-4-0000-5-0000--|--9-0000-7-0000-9-0000-7-0000----------|
 ------------------------------|---------------------------------------|
 ------------------------------|---------------------------------------|
 Then play this twice.          Then play this twice.

 Figure F: guitar part played with Figure E. Again, just simple power
 chords... If you want to fatten up the sound a bit, play those extra notes.
 ---------------------------------------------------------------------|
 ---------------------------------------------------------------------|
 -(9)-(8)-(7)-(8)-----------------------------------------------------|
 --9---8---7---8------------------------------------------------------|
 --7---6---5---6------------------------------------------------------|
 -(0)-(0)-(0)-(0)-----------------------------------------------------|

 Figure G: After having played all the parts so far once again more or
 less, this guitar part comes in. I am not sure exactly how it's played,
 but in any case, here it is...

 ---------------------------------------------------------------------|
 ---------------------------------------------------------------------|
 ---------------------------------------------------------------------|
 ---------------------------------------------------------------------|
 --2--------4-5-4--2--------4-5-4-6-----------------------------------|
 --0-0pm0pm-2-3-2--0-0pm0pm-2-3-2-4-----------------------------------|

 Figure H: Outro. My favorite part of the song. Maybe, one of my favorite
 parts of all the CoF songs... excellent melodies... Need I say more? Just
 go ahead and play it, will ya? Heavy vibrato and appropriate slide
 won't hurt...

 ---------------------------------------------------------------------|
 ---------------------------------------------------------------------|
 ---------------------------------------------------------------------|
 ---------------------------------------------------------------------|
 --/7--10-9-10-9-7-10-9-7-77------------------------------------------|
 -----------------------------10-7-10---------------------------------|

 ---------------------------------------------------------------------|
 ---------------------------------------------------------------------|
 ---------------------------------------------------------------------|
 -----------7-777-9--1010-9-10-9-7-9-7----7---------------------------|
 --/7--10-9----------------------------10---10-9-10-9-777-------------|
 ---------------------------------------------------------------------|

 ---------------------------------------------------------------------|
 ---------------------------------------------------------------------|
 ---------------------------------------------------------------------|
 ---------------------------------------------------------------------|
 --/7--10-9-10-9-7----------2-3-5-7-7-777-----------------------------|
 ------------------10-8-7-3-------------------------------------------|

 ---------------------------------------------------------------------|
 ---------------------------------------------------------------------|
 ---------------------------------------------------------------------|
 -----------7-777-9--1010-9-10-9-7-9-7----7---------------------------|
 --/7--10-9----------------------------10---10-9-10-9-777-------------|
 ---------------------------------------------------------------------|

 Figure I: Yet, another keyboard part... Unlike the other keyboard I
 attempted to tab, I prefer playing this part with bunch of power chords
 for some reason... You might want to try this with open chords, though...

 ---------------------------------------------------------------------|
 ---------------------------------------------------------------------|
 -------------9---------11--9--11--11--9--9--7--11--9-----------------|
 --9--12--11--7--9--12--9---7--9---9---7--7--5--9---7-----------------|
 --7--10--9------7--10------------------------------------------------|
 --0-------------0----------------------------------------------------|

 Figure J: This part is being played along with Figure I.
 Palm mute all the way...

 ---------------------------------------------------------------------|
 ---------------------------------------------------------------------|
 ---------------------------------------------------------------------|
 --9-7----9-7------7-----------9-7-10-9-------------------------------|
 ------10-----10-9---10-9-7-10----------------------------------------|
 ---------------------------------------------------------------------|

Notes: I didn't tabbed the song, i just found it on the net, corrected it and then 
it.
Enjoy :)

If you hear mistakes mail me at: maguscaligula@hotmail.it
comments
We did not receive enough feedback on this tab! Please rate:
print report bad tab
1 2 3 4 5
I want to post or [tab]
guest
You may want to rate the tab now too:
select rating
Please do not post tabs as comments. Select "correction" instead!