Oops, an error
Loading. Please wait.

Swansong For A Raven Tab

ver1
ver1

Whole song

Interactive

More versions @911Tabs.com
3,216 views 9 this week
no commentswrite comment
1 2 3 4 5
worth learning
x 3
Autoscroll
+/-
esc
set tempo
stop
Contributor
Difficulty
advanced
Hey! There's an official Ultimate Guitar app which is ideal
for learning songs when you're away from computer. Get the app
WARNING: You are trying to view
                                    content from Ultimate-Guitar.com
                                    in an unauthorized application,
                                    which is prohibited.

                                    Please use an official Ultimate
                                    Guitar Tabs application for iPhone,
                                    iPad or Android to access legitimate
                                    chords, guitar, bass, and drum tabs
                                    from Ultimate-Guitar.com database.

                                    Type "ultimate guitar tabs" in Apple
                                    App Store's or Android Market's
                                    search to find the application.
                 x2
|-----------------|--------------------------------------------------|\
|-----------------|--------------------------------------------------| \
|-----------------|--------------------------------------------------|  \
|---7-6-7-9-7-6-7-|---7-6-7-9-7-6-7---7-6-7-9-7-6-7---7-6-7-9-7-11-9-|  /x2
|-9---------------|-7---------------5---------------7----------------| /
|-----------------|--------------------------------------------------|/

Guitar 1
          x2         x2         x2         x2
|----------|----------|----------|----------|\
|----------|----------|----------|----------| \
|----------|----------|----------|----------|  \
|--7679767-|--7679767-|--7679767-|-76797119-|  /x2
|-9--------|-5--------|-7--------|9---------| /
|----------|----------|----------|----------|/


Guitar 2

|---------------|---------------|---------------|---------------|
|---------------|---------------|---------------|---------------|
|---------------|---------------|---------------|---------------|
|---------------|---------------|---------------|---------------|
|-4--4-4-4--4-4-|-5--5-5-5--5-5-|-7--7-7-7--7-7-|-9--9-9-9--9-9-|
|-2--2-2-2--2-2-|-5--5-5-5--5-5-|-7--7-7-7--7-7-|-9--9-9-9--9-9-|


|-----------------|\
|-----------------| \
|-----------------|  \
|-----------------|  /x3
|-5p4p0h4h5/7p5p4-| /
|-----------------|/ 

Guitar 1
|-----------------|------------------|------------------|------------|
|-----------------|------------------|------------------|------------|
|-----------------|------------------|------------------|------------|
|---7----7~---7---|----7----6~---6---|----7----7~---7---|-7--7-6-333-|
|-8---8---------8-|-8----8---------7-|-8----8---------8-|-7--7-6-333-|
|-----------------|------------------|------------------|-5--7-4-111-|

Guitar 2

|-----------------|------------------|------------------|------------|
|-----------------|------------------|------------------|------------|
|-----------------|------------------|------------------|------------|
|-----------------|------------------|------------------|-7--7-6-333-|
|-7---------------|-6----------------|-7----------------|-7--7-6-111-|
|-5---------------|-4----------------|-5----------------|-5--5-4-111-|


Guitar 1&2
|--------------------------------------------------------------------------|
|--------------------------------------------------------------------------|
|--------------------------------------------------------------------------|
|--------------------------------------------------------------------------|
|-----------------------------------------------------------101011p10888665|
|-88881010111110881010777788p774444333-888101011111010881010---------------|

Guitar 1
          x2         x2         x2         x2
|----------|----------|----------|----------|\
|----------|----------|----------|----------| \
|----------|----------|----------|----------|  \
|--7679767-|--7679767-|--7679767-|-76797119-|  /x2
|-9--------|-5--------|-7--------|9---------| /
|----------|----------|----------|----------|/


Guitar 2

|---------------|---------------|---------------|---------------|
|---------------|---------------|---------------|---------------|
|---------------|---------------|---------------|---------------|
|---------------|---------------|---------------|---------------|
|-4--4-4-4--4-4-|-5--5-5-5--5-5-|-7--7-7-7--7-7-|-9--9-9-9--9-9-|
|-2--2-2-2--2-2-|-5--5-5-5--5-5-|-7--7-7-7--7-7-|-9--9-9-9--9-9-|


|-----------------|\
|-----------------| \
|-----------------|  \
|-----------------|  /x2
|-5p4p0h4h5/7p5p4-| /
|-----------------|/

Guitar 1&2                       x4          
|---------------------------------| 
|---------------------------------|
|---------------------------------|
|-5\44-44-2/44-55-5\44--8-5-2-5---|
|-5\44-44-2/44-55-5\44--8-5-2-5---|
|-3\22-22-0/22-33-3\22--6-3-0-3---|

                                                x3
|------------------------------------------------|
|------------------------------------------------|
|------------------------------------------------|
|-5\4-4-4-44-2/4-4-4-44-5\4-4-4-44-8\5-2/5-------|
|-5\4-4-4-44-2/4-4-4-44-5\4-4-4-44-8\5-2/5-------|
|-3\2-2-2-22-0/2-2-2-22-3\2-2-2-22-6\3-0/3-------|


|------------------------------------------------|
|------------------------------------------------|
|------------------------------------------------|
|-5\4-4-4-44-2/4-4-4-44-3/10-3/5-12~\5-12\5------|
|-5\4-4-4-44-2/4-4-4-44-3/10-3/5-12~\5-12\5------|
|-3\2-2-2-22-0/2-2-2-22-1/8--1/3-10~\3-10\3------|


Guitar 1
|-----------------|------------------|------------------|------------|
|-----------------|------------------|------------------|------------|
|-----------------|------------------|------------------|------------|
|---7----7~---7---|----7----6~---6---|----7----7~---7---|-7--7-6-333-|
|-8---8---------8-|-8----8---------7-|-8----8---------8-|-7--7-6-333-|
|-----------------|------------------|------------------|-5--7-4-111-|

Guitar 2

|-----------------|------------------|------------------|------------|
|-----------------|------------------|------------------|------------|
|-----------------|------------------|------------------|------------|
|-----------------|------------------|------------------|-7--7-6-333-|
|-7---------------|-6----------------|-7----------------|-7--7-6-111-|
|-5---------------|-4----------------|-5----------------|-5--5-4-111-|

Guitar 1&2                                                                x2
|--------------------------------------------------------------------------|
|--------------------------------------------------------------------------|
|--------------------------------------------------------------------------|
|--------------------------------------------------------------------------|
|-----------------------------------------------------------101011p10888665|
|-88881010111110881010777788p774444333-888101011111010881010---------------|

Guitar 1
          x2         x2         x2         x2
|----------|----------|----------|----------|\
|----------|----------|----------|----------| \
|----------|----------|----------|----------|  \
|--7679767-|--7679767-|--7679767-|-76797119-|  /x2
|-9--------|-5--------|-7--------|9---------| /
|----------|----------|----------|----------|/


Guitar 2

|---------------|---------------|---------------|---------------|
|---------------|---------------|---------------|---------------|
|---------------|---------------|---------------|---------------|
|---------------|---------------|---------------|---------------|
|-4--4-4-4--4-4-|-5--5-5-5--5-5-|-7--7-7-7--7-7-|-9--9-9-9--9-9-|
|-2--2-2-2--2-2-|-5--5-5-5--5-5-|-7--7-7-7--7-7-|-9--9-9-9--9-9-|


|-----------------|\
|-----------------| \
|-----------------|  \
|-----------------|  /x2
|-5p4p0h4h5/7p5p4-| /
|-----------------|/

Guitar 1&2                       x4          
|---------------------------------| 
|---------------------------------|
|---------------------------------|
|-5\44-44-2/44-55-5\44--8-5-2-5---|
|-5\44-44-2/44-55-5\44--8-5-2-5---|
|-3\22-22-0/22-33-3\22--6-3-0-3---|

                                                x3
|------------------------------------------------|
|------------------------------------------------|
|------------------------------------------------|
|-5\4-4-4-44-2/4-4-4-44-5\4-4-4-44-8\5-2/5-------|
|-5\4-4-4-44-2/4-4-4-44-5\4-4-4-44-8\5-2/5-------|
|-3\2-2-2-22-0/2-2-2-22-3\2-2-2-22-6\3-0/3-------|


|------------------------------------------------|
|------------------------------------------------|
|------------------------------------------------|
|-5\4-4-4-44-2/4-4-4-44-3/10-3/5-12~\5-12\5------|
|-5\4-4-4-44-2/4-4-4-44-3/10-3/5-12~\5-12\5------|
|-3\2-2-2-22-0/2-2-2-22-1/8--1/3-10~\3-10\3------|

Guitar 1
|------------------------------|
|------------------------------|
|------------------------------|
|-9---7---7--------------9-4---|
|---7---5---7--10-9h10-7-----5-|
|------------------------------|

Guitar 1&2                                           x2
|-----------------------------------------------------|
|-----------------------------------------------------|
|-4\--------------------------------------------------|
|----4h5-5p4h5/7--10-99-9h10p9-9-9-9-9-9b-9br(7)\-----|
|-----------------------------------------------------|
|-----------------------------------------------------|

Guitar 1
|----------------------------------|\
|----------------------------------| \
|----------------------------------|  \
|-9---7---7------------------------|   \
|---7---5---5----------------------|    \
|----------------------------------|     \
                                          \
Guitar 2                                  /x6
|----------------------------------|     /
|----------------------------------|    /
|------------------------------3ph-|   /
|-2----5----7----------------------|  /
|-2----5----7----3-2h3p2-0-5-3-----| /
|-0----3----5----------------------|/

Guitar 1&2 
|----------------------------------------------------------------------------------------|\
|----------------------------------------------------------------------------------------|  \
|----------------------------------------------------------------------------------------|   \
|-9-9-9-9-7-7-5-5h7p-5/4-4-4-4-5-5-4-5-4-7-7-7-7-5-5-7-5---------------------------------|   /x2
|--------------------------------------------------------3-3-3-3-------------------------| /
|---------------------------------------------------------------3-2-3-5-3-2-3-2-3-5-3-2--|/

Guitar 1
|--------------------------|
|--------------------------|
|----------------------<3>-|
|--------------------------|
|---------3-2h3p2-0-5-3----|
|--------------------------|

Guitar 1
|-------------------------12---------12-11---------------|
|-7-10-9-10-9-12-10-9-10-----12---12-------9--9-11-12-11-|
|--------------------------------------------------------|
|--------------------------------------------------------|
|--------------------------------------------------------|
|--------------------------------------------------------|

|-10---------10---------------------------|
|----11---11----14--10----10-12-13-12---5-|
|-----------------------------------------|
|-----------------------------------------|
|-----------------------------------------|
|-----------------------------------------|

comments
We did not receive enough feedback on this tab! Please rate:
print report bad tab
1 2 3 4 5
I want to post or [tab]
guest
You may want to rate the tab now too:
select rating
Please do not post tabs as comments. Select "correction" instead!