Oops, an error
Loading. Please wait.

Tearing The Veil From Grace Tab

1,531 views 1 this week
1 commentread comment
1 2 3 4 5
excellent!
x 2
Autoscroll
+/-
esc
set tempo
stop
WARNING: You are trying to view
                                    content from Ultimate-Guitar.com
                                    in an unauthorized application,
                                    which is prohibited.

                                    Please use an official Ultimate
                                    Guitar Tabs application for iPhone,
                                    iPad or Android to access legitimate
                                    chords, guitar, bass, and drum tabs
                                    from Ultimate-Guitar.com database.

                                    Type "ultimate guitar tabs" in Apple
                                    App Store's or Android Market's
                                    search to find the application.
CRADLE OF FILTH
Tearing The Veil From Grace
Album: Midian
2000 Music For Nations


tabbed by Hellspawn (effigy29@hotmail.com)


Legend:

h       =  hammer-on               b/  =   bend half a step           
p       = pull-off                
PM |--| = palm mute                  )
"       = tremolo picking          b/   =  bend one whole step
        = (or 32th note)        
/       = slide up                 b/\  =  bend half a step and release
\       = slide down              
4/4     = time signature             )
( )     = tie note                 b/ \ =  bend one whole step and release
x       = muffled note             b    =  bend without picking
ah      = artificial harmonic      B    =  bend with picking


Timing: 4/4: ----   = 1 beat
       12/8: ------ = 1 beat
             |_3_|  = triplet   

Tune Down 1 whole step  (6:D 5:G 4:C 3:F 2:A 1:D)

Intro (Keyboard)
12/8
|-------------------------------|-------------------------------|
|---------17---------17---------|---------15---------15---------|
|------12----------12-----------|------11----------11-----------|
|---14-----------14-------------|---12-----------12-------------|
|-------------------------------|-------------------------------|
|-------------------------------|-------------------------------|
                                   ______________________________
                                  |1.                            |
|--------------------------------|--------------------------------|
|----------13---------13---------|---------13-----------15--------|
|o------14----------14-----------|------14-----------14----------o|
|o---14-----------14-------------|---16-----------16-------------o|
|--------------------------------|--------------------------------|
|--------------------------------|--------------------------------|

  (Gtr 1)                        Riff A
|-------------------------------|-------------------------|-------------------------|
|---------15-----------12-------|-------------------------|-------------------------|
|------16-----------11----------|-------------------------|-7-----7-------7-7-7-----|
|---17-----------13----9\\\\\\\\|-2-----2-------2-2-2-----|-7-----7-------7-7-7-----|
|----------------------7\\\\\\\\|-2-----2-------2-2-2-----|-5-----5-------5-5-5---*-|
|-------------------------------|-0-----0-------0-0-0-----|-----------------------5-|
|                                               pm.                       pm.       |
| (Gtr 2)                                                            *1st time only |
|-------------------------------|-------------------------|-------------------------|
|---------15-----------12-------|-------------------------|-------------------------|
|------16-----------11----------|-------------------7-----|-------------------7-----|
|---17-----------13----9\\\\\\\\|-2-1-2-2-----5-4-5---5-4-|-4-2-4-4~----5-4-5---5-4-|
|----------------------7\\\\\\\\|-------2-----------------|-------------------------|
|-------------------------------|-------0-----------------|-------------------------|

                                       (end Riff A)
|-------------------------|------------------------|
|-------------------------|------------------------|
|-------------------------|------------------------|
|-7-----7-------7-7-7-----|------------------------|
|-7-----7-------7-7-7-----|-6~----------5~---------|
|-5-----5-------5-5-5-----|------------------------|
|               pm.                                |
|                                                  |
|-------------------------|------------------------|
|-------------------------|------------------------|
|-5-4-5-------------------|------------------------|
|-------7-----------------|------------------------|
|-------7-----------------|-6~----------5~---------|
|-------5-----------------|------------------------|

 Riff B (Both Gtrs)
|-------------------------|-------------------------|
|-------------------------|-------------------------|
|-------------------------|-------------------------|
|-------------------5-5-5-|-------------------------|
|-7--77-7--77-2-2-2-3-3-3-|-5-5-5-5-5-5-4-4-4-4-4-4-|
|-5--55-5--55-0-0-0-------|-3-3-3-3-3-3-2-2-2-2-2-2-|

  (Gtr 2) w/ Riff A
|--------------------------------|-----------------------------|
|--------------------------------|-----------------------------|
|--------------------------------|-----------------------------|
|------------------------12------|---------------------12------|
|-7--6-7--7~-----10-9-10----10-9-|-9-7-9-9~----10-9-10----10-9-|
|--------------------------------|-----------------------------|
|                                                              |
| (Gtr 3)                                                      |
|--------------------------------|-----------------------------|
|--------------------------------|-----------------------------|
|--------------------------------|---------------------B/\-----|
|------------------------7-------|-7-5-7-7~----9--7-9--9(9)-7--|
|-10-9-10-10~----10-9-10----10-9-|-----------------------------|
|--------------------------------|-----------------------------|
|                                                              |
| (Gtr 4)                                                      |
|--------------------------------|-----------------------------|
|--------------------------------|-----------------------------|
|--------------------------------|---------------------B/\-----|
|------------------------12------|-7-5-7-7~----9--7-9--9(9)-7--|
|-10-9-10-10~----10-9-10----10-9-|-----------------------------|
|--------------------------------|-----------------------------|

|--------------------------------|---------------------------|
|--------------------------------|---------------------------|
|--------------------------------|---------------------------|
|-10-9--10-10~---9~-----7~-------|---------------------------|
|--------------------------------|-6~----------5~-----10--9--|
|--------------------------------|---------------------------|
|                                                            |
|                                                            |
|--------------------------------|---------------------------|
|-13-12-13-13~---12~----10~---12\|---------------------------|
|--------------------------------|---------------------------|
|--------------------------------|---------------------------|
|--------------------------------|-6~----------5~-----10--9--|
|--------------------------------|---------------------------|
|                                                            |
|                                                            |
|----------12~-------------------|-14~----------------15--14-|
|--------------------------------|---------------------------|
|--------------------------------|---------------------------|
|-10-9--10-----------------------|---------------------------|
|--------------------------------|---------------------------|
|--------------------------------|---------------------------|

 (Gtrs 3 & 4)  w/ Riff B 1.5 times
|-------------------------|-------------------------|-------------------------|
|-------------------------|-------------------------|-------------------------|
|-9~----------------------|(9~)---------------------|(9~)---------------------|
|-------------------------|-------------------------|-------------------------|
|-------------------------|-------------------------|-------------------------|
|-------------------------|-------------------------|-------------------------|

 Gtrs 1 & 2
|-------------------------|-------------------------|-------------------------|
|-------------------------|-------------------------|-------------------------|
|-------------------------|-------------------------|-------------------------|
|-------------------4-----|(4)----------------------|(4)----------------------|
|-5-5-5-5-5-5-4-4-4-2-----|(2)----------------------|(2)----------------------|
|-3-3-3-3-3-3-2-2-2-------|-------------------------|-------------------------|
|                                                                             |
|                                                                             |
|-------------------------|-------------------------|-------------------------|
|-------------------------|-------------------------|-------------------------|
|(9~)---------------------|(9~)---------------------|(9~)---------------------|
|-------------------------|-------------------------|-------------------------|
|-------------------------|-------------------------|-------------------------|
|-------------------------|-------------------------|-------------------------|

(Gtrs 3 & 4 out)

Faster
 4/4
  Riff C  (Gtr 1)
|-----------------|-----------------|-----------------|-----------------|
|-----------------|-----------------|-----------------|-----------------|
|-----------------|-----------------|-----------------|-----------------|
|-2"--------------|-2"----------4"--|-5"--------------|-3333333355555555|
|-0"--------------|-0"----------2"--|-3"--------------|-----------------|
|-----------------|-----------------|-----------------|-----------------|
|                                                                       |
| Riff C1 (Gtr 2)                                                       |
|-----------------|-----------------|-----------------|-----------------|
|-----------------|-----------------|-----------------|-----------------|
|-----------------|-----------------|-----------------|-----------------|
|-2"--------------|-2"----------4"--|-5"--------------|-33333333--------|
|-0"--------------|-0"----------2"--|-3"--------------|---------66666666|
|-----------------|-----------------|-----------------|-----------------|

                                                           (end Riff C)
|-----------------|-----------------|-----------------|-----------------|
|-----------------|-----------------|-----------------|-----------------|
|-----------------|-----------------|-----------------|-3-------2---2---|
|-----------------|-----------------|-8"--------------|-3-------2---2---|
|-5"--------------|-6~------5---5---|-6"----------0000|-1-------0---0---|
|-3"--------------|-----3-3-3---3---|-----------------|-----3333--------|
|                                                                       |
|                                                         (end Riff C1) |
|-----------------|-----------------|-----------------|-----------------|
|-----------------|-----------------|-----------------|-----------------|
|-----------------|-----------------|-----------------|-3-------2---2---|
|-----------------|-----------------|-8"--------------|-3-------2---2---|
|-5"--------------|-6~------5---5---|-6"----------0000|-1-------0---0---|
|-3"--------------|-----3-3-3---3---|-----------------|-----3333--------|

play Riff C1 (Both Gtrs)

 Riff D
|------------------|-----------------|-----------------|------------------|
|------------------|-----------------|-----------------|------------------|
|o-----------------|-----------------|-----------------|-----------------o|
|o-----------------|-----------------|-----------------|-----------------o|
|-------p-------p--|------p----------|------p-------p--|------p--6-8-9----|
|--55558-5-55558-5-|-55558-5-44444444|-55558-5-55558-5-|-55558-5-4-6-7----|

  Riff E (Gtr 1)
|----------------------|-----------------|---------------------|--------------------|
|----------------------|-----------------|---------------------|--------------------|
|o------p-h-------p-h--|-----pp------pp--|------p-h-------p-h--|-------p-------7---o|
|o-777710710-777710710-|-6666969-6666969-|-777710710-777710710-|-777710-7-9-10-----o|
|----------------------|-----------------|---------------------|--------------------|
|----------------------|-----------------|---------------------|--------------------|
|                                                                                   |
| Riff E1 (Gtr 2)                                                                   |
|----------------------|-----------------|---------------------|--------------------|
|----------------------|-----------------|---------------------|--------------------|
|o---------------------|-----------------|---------------------|-------------------o|
|o---------------------|-----------------|---------------------|-------------------o|
|--------p---------p---|------p-------p--|-------p---------p---|-------p--6-8--9----|
|--55558--5--55558--5--|-44447-4-44447-4-|-55558--5--55558--5--|-55558--5-4-6--7----|

play Riff C & C1
                                                      ________________
                                                     |1.3.            |
|-----------------|----------------|----------------|------------------|
|-----------------|----------------|----------------|------------------|
|o----------------|----------------|----------------|-----------------o|
|o----------------|----------------|----------------|--p---p---p------o|
|-----------------|-5~-----\000000-|----------------|-5-4-7-5-7-5-9~---|
|--2~--2225~--222-|----------------|-2~--2225~--222-|------------------|
       |3|    |3|           |3||3|

  _________________    ________________
 |2.               |  |4.              |
|-Gtr-2-------------||-Gtr-2------------|------------------------------------|
|--p---p---p--ah----||--p---p---p--ah---|------------------------------------|
|-7-6-9-7-9-7-11~--o||-7-6-9-7-9-7-10~-o|--------------Keyboard--------------|
|--p---p---p-------o||--p---p---p------o|------------------------------------|
|-5-4-7-5-7-5-9~----||-5-4-7-5-7-5-8~---|------------------------------------|
|-Gtr-1-------------||-Gtr-1------------|------------------------------------|

  Gtr 1
|-----------------|-----------------|-----------------|-----------------|
|-----------------|-----------------|-----------------|-----------------|
|-----------------|-----------------|-----------------|-----------------|
|-2---------------|(2)----------4---|-5---------------|-5-------5-------|
|-0---------------|(0)----------2---|-3---------------|-3-------3-------|
|-----------------|-----------------|-----------------|-----------------|
|                                                                       |
| Gtr 2                                                                 |
|-----------------|-----------------|-----------------|-----------------|
|-----------------|-----------------|-----------------|-----------------|
|-----------------|-----------------|-----------------|-----------------|
|-2---------------|(2)----------4---|-5---------------|-----------------|
|-0---------------|(0)----------2---|-3---------------|-8~------6~------|
|-----------------|-----------------|-----------------|-----------------|

 Both Gtrs
|-----------------|-----------------|-----------------|-----------------|
|-----------------|-----------------|-----------------|-----------------|
|-----------------|-----------------|-----------------|-----------------|
|-----------------|-----------------|-8---------------|-3-------2-------|
|-5---------------|-6~------5~------|-6---------------|-1-------0-------|
|-3---------------|-----------------|-----------------|-----------------|
                
 Riff F                                                     (end Riff F)
|-----------------|-----------------|-----------------|-----------------|
|-----------------|-----------------|-----------------|-----------------|
|-----------------|------------h-p--|-----------------|------------h-p--|
|-----------------|-55555555554-5-4-|-----------------|-77777777775-7-5-|
|-----------------|-----------------|-----------------|-----------------|
|-0-000-000-000-0-|-----------------|-0-000-000-000-0-|-----------------|

  Riff F1                                                 (end Riff F1)
|-----------------|-----------------|-----------------|-----------------|
|-----------------|-----------------|-----------------|-----------------|
|--------------p--|------------h-p--|-----------------|-----------------|
|-------------5-4-|-55555555554-5-4-|-7-775-554-44----|-----------------|
|-----------------|-----------------|-------------7-77|-5-55--7-9---7-9-|
|-0-000-000-0-----|-----------------|-----------------|-----7-----7-----|
|                                                                       |
| Riff F2                                                 (end Riff F2) |
|-----------------|-----------------|-----------------|-----------------|
|-----------------|-----------------|-----------------|-----------------|
|-----------------|------------h-p--|-----------------|-----------------|
|-----------------|-55555555554-5-4-|-7-775-554-44----|-----------------|
|-----------------|-----------------|-------------7-77|-5-55--7-9---7-9-|
|-0-000-000-000-0-|-----------------|-----------------|-----7-----7-----|

play Riff F

 Riff F3 (Gtr 2) w/ Riff F1
|-----------------|-----------------|-----------------|-----------------|
|-----------------|-----------------|-----------------|-----------------|
|-----------------|------------h-p--|-----------------|-----------------|
|-----------------|-55555555554-5-4-|-7-775-557-44----|-----------------|
|-----------------|-----------------|-------------7-77|-5-55--7-9---7-9-|
|-0-000-000-000-0-|-----------------|-----------------|-----7-----7-----|

  (Gtr 1)
|-----------------|-----------------|-----------------|-----------------|
|-----------------|-----------------|-----------------|-----------------|
|-----------------|-----------------|-----------------|-----------------|
|-2---------------|(2)----------4---|-5---------------|-5-------5-------|
|-0---------------|(0)----------2---|-3---------------|-3-------3-------|
|-----------------|-----------------|-----------------|-----------------|
|                                                                       |
| (Gtr 2)                                                               |
|-----------------|-----------------|-----------------|-----------------|
|-----------------|-----------------|-----------------|-----------------|
|-----------------|-----------------|-----------------|-----------------|
|-2---------------|(2)----------4---|-5---------------|(5)--------------|
|-0---------------|(0)----------2---|-3---------------|(3)--------------|
|-----------------|-----------------|-----------------|-----------------|


|-----------------|-----------------|-----------------|-----------------|
|-----------------|-----------------|-----------------|-----------------|
|-----------------|-----------------|-----------------|-3-------2---2---|
|-----------------|-----------------|-8---------------|-3-------2---2---|
|-5---------------|-6~------5~------|-6---------------|-1-------0---0---|
|-3---------------|-----------------|-------------0000|-----0000--------|
|                                                                       |
|                                                                       |
|-----------------|-----------------|-----------------|-----------------|
|-----------------|-----------------|-----------------|-----------------|
|-----------------|-----------------|-----------------|-3-------2---2---|
|-----------------|-----------------|-8---------------|-3-------2---2---|
|-5---------------|-6~------5~------|-6---------------|-1-------0---0---|
|-3---------------|-----------------|-----------------|-----0000--------|

play Riff C & C1
play Riff D
play Riff F
play Riff F2
play Riff F
play Riff F1 & F3

 12/8
|-------------------------|-------------------------|-------------------------|
|-------------------------|-------------------------|-------------------------|
|-------------------------|-------------------------|-Drum-fill---------------|
|-2-----------------------|(2)----------------------|-------------x\\\pick\\\\|
|-0-----------------------|(0)----------------------|-------------x\\\slide\\\|
|-------------------------|-------------------------|-------------------------|

(Both Gtrs tacet)

  (Gtr 1)
|-------------------------|-------------------------|-------------------------|
|-------------------------|-------------------------|-------------------------|
|-------------------------|-------------------------|-------------------------|
|-------------x\\\\\\\\\\\|-------------------------|-------------7777--------|
|-------------x\\\\\\\\\\\|-10""999910""10"10"------|-10""999910""----10""9999|
|-------------------------|-------------------000000|-------------------------|
|                                                                             |
| (Gtr 2)                                                                     |
|-------------------------|-------------------------|-------------------------|
|-------------------------|-------------------------|-------------------------|
|-------------------------|-------------------------|-------------------------|
|-------------------------|-------------------------|-------------12""--------|
|-------------------------|-777766667777------------|-10""999910""----10""9999|
|-------------12\---------|-------------000000000000|-------------------------|


|-------------------------|-------------------------|-------------------------|
|-------------------------|-------------------------|-------------------------|
|-------------------------|-------------------------|-------------------------|
|-777755557777777777777777|-99997777999910""99997777|-10""999910""10"10"10"10"|
|-------------------------|-------------------------|-------------------------|
|-------------------------|-------------------------|-------------------------|
|                                                                             |
|                                                                             |
|-------------------------|-------------------------|-------------------------|
|-------------------------|-------------------------|-------------------------|
|-------------------------|-------------------------|-------------------------|
|-------------------------|-------------7777--------|-10""999910""------------|
|-999977779999999999999999|-10""999910""----10""9999|-------------000000000000|
|-------------------------|-------------------------|-------------------------|


|-------------------------|-------------------------|-------------------------|
|-------------------------|-------------------------|-------------------------|
|-------------------------|-------------------------|-------------------------|
|-999999999999777777777777|-------------------------|-------------555555444444|
|-------------------------|-666666666666666666666666|-555555555555------------|
|-------------------------|-------------------------|-------------------------|
|                                                                             |
|                                                                             |
|-------------------------|-------------------------|-------------------------|
|-------------------------|-------------------------|-------------------------|
|-------------------------|-------------------------|-------------------------|
|-------------------------|-------------------------|-------------555555444444|
|-000000000000000000000000|-666666666666666666666666|-555555555555------------|
|-------------------------|-------------------------|-------------------------|
                                                       _________________________
                                                      |1.
|--------------------------|-------------------------|-------------------------|
|--------------------------|-------------------------|-------------------------|
|o-------------------------|-------------------------|-------------------------|
|o-------------------------|-------------------------|-------------------------|
|--000000000000000000000000|-222222222222333333333333|-------------------------|
|--------------------------|-------------------------|-333333333333333333333333|
__________________________   ________________________
                          | |2. 
|--------------------------|-------------------------|-------------------------|
|--------------------------|-------------------------|-------------------let---|
|-------------------------o|-------------------------|-------------------ring--|
|-Gtr-1-------------------o|-------------------------|---------4---------(4)---|
|-222222222222222222222222-|-5---5---5---5---5---5---|-4---4---4---------(4)---|
|-222222222222222222222222-|-3---3---3---3---3---3---|-2---2---2---------(2)---|
  Gtr 2

Slower
KEYBOARD

|-----------------|-----------------|-----------------|-----------------|
|-----------------|-----------------|-----------------|-----------------|
|-2---------------|(2)--------------|(2)--------------|-----------------|
|-2---------------|(2)--------------|(2)--------------|-5---------------|
|-0---------------|(0)--------------|(0)--------------|-5---------------|
|-----------------|-----------------|-----------------|-3---------------|

  (Gtr 1)                             Riff G
|-----------------|-----------------||------------------|-----------------|
|-----------------|-----------------||------------------|-----------------|
|---------5-5-5-5-|-5-5-7-7-7-7-7-7-||o-----------------|-----------------|
|(5)------5-5-5-5-|-5-5-7-7-7-7-7-7-||o-----------------|-----------------|
|(5)------3-3-3-3-|-3-3-5-5-5-5-5-5-||--7-----7-5---7~--|-----5---7---7---|
|(3)--------------|-----------------||--5---------------|-----3---5---5---|
|                                                                         |
| (Gtr 2)                                                                 |
|-----------------|-----------------||------------------|-----------------|
|-----------------|-----------------||------------------|-----------------|
|---------5-5-5-5-|-5-5-7-7-7-7-7-7-||o-----------------|-----------------|
|(5)------5-5-5-5-|-5-5-7-7-7-7-7-7-||o-----------------|-----------------|
|(5)------3-3-3-3-|-3-3-5-5-5-5-5-5-||--7---7---7---7---|-7---5---7---7---|
|(3)--------------|-----------------||--5---5---5---5---|-5---3---5---5---|

                                                             (end Riff G)
|-----------------|-----------------|-----------------|------------------|
|-----------------|-----------------|-----------------|------------------|
|-----------------|-----------------|-----------------|-----------------o|
|--p-------p---p--|-----------------|-----------------|-----------------o|
|-7-5-7~--7-0-7-0-|-5---5---3---5~--|-----5---5---5---|-5---7------------|
|-----------------|-3---3-----------|---3-----3---3---|-3---5------------|
|                                                                        |
|                                                                        |
|-----------------|-----------------|-----------------|------------------|
|-----------------|-----------------|-----------------|------------------|
|-----------------|-----------------|-----------------|-----------------o|
|--p-------p---p--|-----------------|-----------------|-----------------o|
|-7-5-7---7-5-7-5-|-5---5---3---2---|-5---5---5---5---|-5---7------------|
|-5--(5)--5---5---|-3---------------|---------3---3---|-3---5------------|


 (Gtr 3) w/ Riff G
|-----------------|-----------------|-----------------|------------------|
|-----------------|-----------------|-----------------|------------------|
|-9~------7---5---|-----------------|-----9-----9-----|------------------|
|-----------------|-9---7-5-7~------|-5-7---5-7---5-7-|-9~------9/10-9~--|
|-----------------|-----------------|-----------------|------------------|
|-----------------|-----------------|-----------------|------------------|


|-----------------|-----------------|------------------|------------------|
|-----------------|-----8~------7---|------------------|------------------|
|---------9~------|-7---------------|-9~------7----5---|------------------|
|-----------------|-----------------|------------------|-9---7-5-7~-------|
|-----------------|-----------------|------------------|------------------|
|-----------------|-----------------|------------------|------------------|
|                                                                         |
|                                    (Gtr 4)                              |
|-----------------|-----------------|----------hp------|------------------|
|-----------------|-----------------|-10~-----8108-----|------------------|
|------rest-------|------rest-------|--------------9~--|------------------|
|-----------------|-----------------|------------------|-----10-9-10~-----|
|-----------------|-----------------|------------------|------------------|
|-----------------|-----------------|------------------|------------------|


|--------------------|------------------|-----------------|------------------|
|--------------------|------------------|-----------------|-----8~-------7---|
|------9------9------|----------hp------|---------9~------|-7----------------|
|-5--7---5-7----5-7--|-9~------797--5~--|-----------------|------------------|
|--------------------|------------------|-----------------|------------------|
|--------------------|------------------|-----------------|------------------|
|                                                                            |
|                                                                            |
|--------------------|------------------|-----------------|------------------|
|--------------------|------------------|-----------------|------------------|
|------9------9------|------------------|---------12~-----|-11--12~----------|
|-9-10---9-10---9-10-|-9~------9/10-9~--|-----------------|------------------|
|--------------------|------------------|-----------------|------------------|
|--------------------|------------------|-----------------|------------------|

(Gtr 4 out)

 (Gtrs 1 & 2)
|------------------|-----------------|-----------------|-----------------|
|--Gtr-3*----------|-----------------|-----------------|-----------------|
|o-9~--------------|-----------------|-----------------|-----------------|
|o-----------------|-----------------|-----------------|-----------------|
|--7-------7\5-7---|-----5---7-------|-7\5-7-----5-7---|-5---5---5\3-5---|
|--5-------5\3-5---|-----3---5-------|-5\3-5-----3-5---|-3---3---3\1-3---|
  * hold until it fades out

                                       Faster
|-----------------|------------------||-----------------|-----------------|
|-----------------|------------------||-----------------|-----------------|
|-----------------|-----------------o||-----------------|-----------------|
|---------5---5---|-5---7---7---7---o||-2---------------|(2)----------4---|
|-5---5---3---3---|-3---5---5---5----||-0---------------|(0)----------2---|
|-3---3-----------|------------------||-----------------|-----------------|

|-----------------|-----------------|-----------------|-----------------|
|-----------------|-----------------|-----------------|-----------------|
|-----------------|-----------------|-----------------|-----------------|
|-5---------------|-----------------|-----------------|-----------------|
|-3---------------|-8~------6~------|-5---------------|-6-------5-------|
|-----------------|-----------------|-3-----------3-3-|-----3-3-----3---|
                                                  pm.       pm.     

|-----------------|-----------------|-----------------|-----------------|
|-----------------|-----------------|-----------------|-----------------|
|-----------------|-----------------|-----------------|-----------------|
|-8---------------|-3-------2-------|-----------------|-----------------|
|-6-----------0-0-|-1-------0-------|-----------------|---------3---3---|
|-----------------|-----3-3-----0000|-600-600-600-600-|-600-600-1---1---|
              pm.       pm.

play Riff C & C1
play Riff D 2 times
play Riff E & E1 2 times

|-----------------|-----------------|-----------------||
|-----------------|-----------------|-----------------||
|-----------------|-----------------|-----------------||
|-----------------|-----------------|-----------------||
|-8-------8-------|-8-------3---5---|-7\--------------||
|-6---00006---0000|-6---00001---3---|-5\--------------||
comments
We did not receive enough feedback on this tab! Please rate:
print report bad tab
1 2 3 4 5
1 comment total.
0 reply
pill2comawhite wrote on November 14 2003, 12:00 am

hmmm... i dont know, lots of effort obviously went into it, i think u may be missing some notes, i cant really say how good it is because its very hard to read, its hard to see when one note comes in vs another, on a song like this adding timings would help enormously! timings can make or break a tab, my opinion lack of timing broke this tab

I want to post or [tab]
guest
You may want to rate the tab now too:
select rating
Please do not post tabs as comments. Select "correction" instead!