Oops, an error
Loading. Please wait.

Thank God For The Suffering Bass Tab

156 views 1 this week
no commentswrite comment
1 2 3 4 5
please rate
Autoscroll
+/-
esc
set tempo
stop
Contributor
Difficulty
novice
WARNING: You are trying to view
                                    content from Ultimate-Guitar.com
                                    in an unauthorized application,
                                    which is prohibited.

                                    Please use an official Ultimate
                                    Guitar Tabs application for iPhone,
                                    iPad or Android to access legitimate
                                    chords, guitar, bass, and drum tabs
                                    from Ultimate-Guitar.com database.

                                    Type "ultimate guitar tabs" in Apple
                                    App Store's or Android Market's
                                    search to find the application.
 Cradle of Filth - IV the Scented Garden: Thank God for the Suffering 
 

Tune down

D|------------------|--------------------------|--------------------------
A|------------------|--------------------------|--------------------------
F|------------------|--------------------------|--------------------------
C|------------------|--5--5--5--5--5--5--5--5--|--5--5--5--5--5--5--7--7--



--------------------------|--------------------------|
--------------------------|--------------------------|
--------------------------|--------------------------|
--8--8--8--8--8--8--8--8--|--7--7--7--7--3--3--3--3--|



--------------------------|--------------------------|
--------------------------|--------------------------|
--------------------------|--------------------------|
--5--5--5--5--5--5--5--5--|--5--5--5--5--5--5--7--7--|



--------------------------|--------------------------|
--------------------------|--------------------------|
--------------------------|--------------------------|
--8--8--8--8--8--8--8--8--|--7--7--7--3--3--3--3--3--|



--------------------------|--------------------------|
--------------------------|--------------------------|
--------------------------|--------------------------|
--5--5--5--5--5--5--5--5--|--5--5--5--5--5--5--7--7--|



--------------------------|----------------------------|
--------------------------|----------------------------|
--------------------------|----------------------------|
--8--8--8--8--8--8--8--8--|--7--7--7--7--7-5-3--3-3-3--|



--------------------------|--------------------------|
--------------------------|--------------------------|
--------------------------|--------------------------|
--5--5--5--5--5--5--5--5--|--5--5--5--5--5--5--7--7--|



--------------------------|--------------------------||--------------------|
--------------------------|--------------------------||*-------------------|
--------------------------|--------------------------||*-------------------|
--8--8--8--8--8--8--8--8--|--7--7--7--7--3--3--3--3--||---5--8--7--7-------|



--------------------------||
-------------------------*||
-------------------------*||
--5--8--7--4----4--3--3---||



------------------------------------------------------------------|
------------------------------------------------------------------|
----------3-3-3-3-2-2-2-2-2-2-2-2-2-2-2-2-2-2-2-2-2-2-2-2-2-2-2-2-|
--5-5-5-5---------------------------------------------------------|



------------------------------------------------------------------|
------------------------------------------------------------------|
----------3-3-3-3-2-2-2-2-----------------------------------------|
--5-5-5-5-----------------4-4-4-4-4-4-4-4-4-4-4-4-4-4-4-4-4-4-4-4-|



------------------------------------------------------------------|
------------------------------------------------------------------|
----------3-3-3-3-2-2-2-2-2-2-2-2-2-2-2-2-2-2-2-2-2-2-2-2-2-2-2-2-|
--5-5-5-5---------------------------------------------------------|



--------------------------------------------------------|
--------------------------------------------------------|
----------3-3-3-3-2-2-2-2-------------------------------|
--5-5-5-5-----------------4-4-4-4-4-4-4-4-4-4-4-4-3--3--|



--------------------------|--------------------------|
--------------------------|--------------------------|
--------------------------|--------------------------|
--5--5--5--5--5--5--5--5--|--5--5--5--5--5--5--7--7--|



--------------------------|--------------------------|
--------------------------|--------------------------|
--------------------------|--------------------------|
--8--8--8--8--8--8--8--8--|--7--7--7--7--3--3--3--3--|



--------------------------|--------------------------|
--------------------------|--------------------------|
--------------------------|--------------------------|
--5--5--5--5--5--5--5--5--|--5--5--5--5--5--5--7--7--|



--------------------------|----------------------------|-------------------|
--------------------------|----------------------------|-------------------|
--------------------------|----------------------------|-------------------|
--8--8--8--8--8--8--8--8--|--7--7--7--7--7-5-3--3-3-3--|--5--8--7--7-------|



----------------------|----------------------|-------------------------|
----------------------|----------------------|-------------------------|
----------------------|----------------------|-------------------------|
--5--8--7--4----------|--5--8--7--7----------|--5--8--7--4----4--3--3--|



------------------------------------------------------------------|
------------------------------------------------------------------|
----------3-3-3-3-2-2-2-2-2-2-2-2-2-2-2-2-2-2-2-2-2-2-2-2-2-2-2-2-|
--5-5-5-5---------------------------------------------------------|



------------------------------------------------------------------|
------------------------------------------------------------------|
----------3-3-3-3-2-2-2-2-----------------------------------------|
--5-5-5-5-----------------4-4-4-4-4-4-4-4-4-4-4-4-4-4-4-4-4-4-4-4-|



------------------------------------------------------------------|
------------------------------------------------------------------|
----------3-3-3-3-2-2-2-2-2-2-2-2-2-2-2-2-2-2-2-2-2-2-2-2-2-2-2-2-|
--5-5-5-5---------------------------------------------------------|



--------------------------------------------------------|
--------------------------------------------------------|
----------3-3-3-3-2-2-2-2-------------------------------|
--5-5-5-5-----------------4-4-4-4-4-4-4-4-4-4-4-4-3--3--|



-------------------------------------------------------------|
-------------------------------------------------------------|
--5--5-5-5-5-5-5-5-5-5-5-5-5-5-5-5-5-5-5-5-5-5-5-5-5-5-5-5-5-|
-------------------------------------------------------------|



-------------------------------------------------------------|
-------------------------------------------------------------|
--5--5-5-5-5-5-5-5-5-5-5-5-5-5-5-5-5-5-5-5-5-5-5-5-5-5-5-5-5-|
-------------------------------------------------------------|



-------------------------------------------------------------|
-------------------------------------------------------------|
-------------------------------------------------------------|
--6--6-6-6-6-6-6-6-6-6-6-6-6-6-6-6-6-6-6-6-6-6-6-6-6-6-6-6-6-|



---------------------------------------------------|
---------------------------------------------------|
---------------------------------------------------|
--8--8-8-8-8-8-8-8-8-8-8-8-8-9--9-9-9-9-9--9-9-9-9-|



---------------------------------------------------------------------------
---------------------------------------------------------------------------
---------------------------------------------------------------------------
--10--10-10-10-10-10-10-10-10-10-10-10-10-10-10-10-10-10-10-10-10-10-10-10-


-------------------------------------------------------------|
-------------------------------------------------------------|
-------------------------------------------------------------|
--9--9-9-9-9-9-9-9-9-9-9-9-9-9-9-9-9-9-9-9-9-9-9-9-9-9-9-9-9-|



-------------------------------------------------------------|
-------------------------------------------------------------|
-------------------------------------------------------------|
--8--8-8-8-8-8-8-8-8-8-8-8-8-8-8-8-8-8-8-8-8-8-8-8-8-8-8-8-8-|



----------------------------------------------|--------------------|
----------------------------------------------|--------------------|
----------------------------------------8--7--|--5-----------------|
--3--3-3-3-3-3-3-3-3-3-3-3-3-5--5-5-5-5-------|-----------1--------|



----------------------|
----------------------|
----------------8--7--|
--3--------5----------|



------------------------------------------------------------------|
------------------------------------------------------------------|
--5-5-5-5-5-5-5-5-5-5-5-5-5-5-5-5---------------------------------|
----------------------------------1-1-1-1-1-1-1-1-1-1-1-1-1-1-1-1-|



------------------------------------------------------------------|
------------------------------------------------------------------|
--------------------------------------------------8-8-8-8-7-7-7-7-|
--3-3-3-3-3-3-3-3-3-3-3-3-3-3-3-3-5-5-5-5-5-5-5-5-----------------|



------------------------------------------------------------------|
------------------------------------------------------------------|
--5-5-5-5-5-5-5-5-5-5-5-5-5-5-5-5---------------------------------|
----------------------------------1-1-1-1-1-1-1-1-1-1-1-1-1-1-1-1-|



------------------------------------------------------------------|
------------------------------------------------------------------|
--------------------------------------------------8-8-8-8-7-7-7-7-|
--3-3-3-3-3-3-3-3-3-3-3-3-3-3-3-3-5-5-5-5-5-5-5-5-----------------|



------------------------------------------------------------------|
------------------------------------------------------------------|
--5-5-5-5-5-5-5-5-5-5-5-5-5-5-5-5---------------------------------|
----------------------------------1-1-1-1-1-1-1-1-1-1-1-1-1-1-1-1-|



------------------------------------------------------------------|
------------------------------------------------------------------|
--------------------------------------------------8-8-8-8-7-7-7-7-|
--3-3-3-3-3-3-3-3-3-3-3-3-3-3-3-3-5-5-5-5-5-5-5-5-----------------|



----------------------------------|---------------------------------|
----------------------------------|---------------------------------|
--7-7-7-7-7-7-8-7-8-8-8-8-5-5-8-8-|--7-7-7-7-7-7-7-7-7-8--10-9--5-8-|
----------------------------------|---------------------------------|



------------------------------------------------------------------|
------------------------------------------------------------------|
--7-7-7-7-7-7-7-7-7-7-7-7-8-8-7-7-8-8-8-8-8-8-8-8-5-5-5-5-8-8-8-8-|
------------------------------------------------------------------|



--------------------------------------------------------------------------|
--------------------------------------------------------------------------|
--7-7-7-7-7-7-7-7-7-7-7-7-7-7-7-7-11-11-11-11-11-11-11-11-8-8-8-8-8-8-8-8-|
--------------------------------------------------------------------------|



------------------------------------------------------------------|
------------------------------------------------------------------|
--7-7-7-7-7-7-7-7-7-7-7-7-8-8-7-7-8-8-8-8-8-8-8-8-5-5-5-5-8-8-8-8-|
------------------------------------------------------------------|



----------------------------------------------------------------------|
----------------------------------------------------------------------|
--7-7-7-7-7-7-7-7-7-7-7-7-8-8-7-7-8-8-8-8-10-10-10-10-9-9-9-9-5-5-8-8-|
----------------------------------------------------------------------|



------------------------------------------------------------------|
------------------------------------------------------------------|
--7-7-7-7-7-7-7-7-7-7-7-7-8-8-7-7-8-8-8-8-8-8-8-8-5-5-5-5-8-8-8-8-|
------------------------------------------------------------------|



------------------------------------------------------------------|
------------------------------------------------------------------|
--7-7-7-7-7-7-7-7-7-7-7-7-7-7-7-7---------------------------------|
----------------------------------4-4-4-4-4-4-4-4-3-3-3-3-3-3-3-3-|



----------------------|-------------------------|----------------------|
----------------------|-------------------------|----------------------|
----------------------|-------------------------|----------------------|
--5--8--7--7----------|--5--8--7--4----4--3--3--|--5--8--7--7----------|



-------------------------|
-------------------------|
-------------------------|
--5--8--7--4----4--3--3--|



------------------------------------------------------------------|
------------------------------------------------------------------|
----------3-3-3-3-2-2-2-2-2-2-2-2-2-2-2-2-2-2-2-2-2-2-2-2-2-2-2-2-|
--5-5-5-5---------------------------------------------------------|



------------------------------------------------------------------|
------------------------------------------------------------------|
----------3-3-3-3-2-2-2-2-----------------------------------------|
--5-5-5-5-----------------4-4-4-4-4-4-4-4-4-4-4-4-4-4-4-4-4-4-4-4-|



------------------------------------------------------------------|
------------------------------------------------------------------|
----------3-3-3-3-2-2-2-2-2-2-2-2-2-2-2-2-2-2-2-2-2-2-2-2-2-2-2-2-|
--5-5-5-5---------------------------------------------------------|



--------------------------------------------------------|
--------------------------------------------------------|
----------3-3-3-3-2-2-2-2-------------------------------|
--5-5-5-5-----------------4-4-4-4-4-4-4-4-4-4-4-4-3--3--|



--------------------------|--------------------------|
--------------------------|--------------------------|
--------------------------|--------------------------|
--5--5--5--5--5--5--5--5--|--5--5--5--5--5--5--5--5--|



--------------------------|--------------------------|
--------------------------|--------------------------|
--3--3--3--3--3--3--3--3--|--3--3--3--3--------------|
--------------------------|--------------3--3--3--3--|



--------------------------|--------------------------|
--------------------------|--------------------------|
--------------------------|--------------------------|
--5--5--5--5--5--5--5--5--|--5--5--5--5--5--5--5--5--|



--------------------------|--------------------------|
--------------------------|--------------------------|
--3--3--3--3--3--3--3--3--|--2--2--2-----------------|
--------------------------|-----------3--3--3--3--3--|



--------------------------|--------------------------|
--------------------------|--------------------------|
--------------------------|--------------------------|
--5--5--5--5--5--5--5--5--|--5--5--5--5--5--5--7--7--|



--------------------------|----------------------------|
--------------------------|----------------------------|
--------------------------|----------------------------|
--8--8--8--8--8--8--8--8--|--7--7--7--7--7-5-3--3-3-3--|



--------------------------|--------------------------|
--------------------------|--------------------------|
--------------------------|--------------------------|
--5--5--5--5--5--5--5--5--|--5--5--5--5--5--5--7--7--|



--------------------------|----------------------------|
--------------------------|----------------------------|
--------------------------|----------------------------|
--8--8--8--8--8--8--8--8--|--7--7--7--7--7-5-3--3-3-3--|



--------------------------|--------------------------|
--------------------------|--------------------------|
--------------------------|--------------------------|
--5--5--5--5--5--5--5--5--|--5--5--5--5--5--5--7--7--|



--------------------------|----------------------------|
--------------------------|----------------------------|
--------------------------|----------------------------|
--8--8--8--8--8--8--8--8--|--7--7--7--7--7-5-3--3-3-3--|



--------------------------|--------------------------|
--------------------------|--------------------------|
--------------------------|--------------------------|
--5--5--5--5--5--5--5--5--|--5--5--5--5--5--5--7--7--|



--------------------------|----------------------------|--------------------
--------------------------|----------------------------|--------------------
--------------------------|----------------------------|--------------------
--8--8--8--8--8--8--8--8--|--7--7--7--7--7-5-3--3-3-3--|--5--8--7--7--------



----------------------|----------------------|-------------------------|
----------------------|----------------------|-------------------------|
----------------------|----------------------|-------------------------|
--5--8--7--4----------|--5--8--7--7----------|--5--8--7--4----4--3--3--|



------------------------------------------------------------------|
------------------------------------------------------------------|
----------3-3-3-3-2-2-2-2-2-2-2-2-2-2-2-2-2-2-2-2-2-2-2-2-2-2-2-2-|
--5-5-5-5---------------------------------------------------------|



------------------------------------------------------------------|
------------------------------------------------------------------|
----------3-3-3-3-2-2-2-2-----------------------------------------|
--5-5-5-5-----------------4-4-4-4-4-4-4-4-4-4-4-4-4-4-4-4-4-4-4-4-|



------------------------------------------------------------------|
------------------------------------------------------------------|
----------3-3-3-3-2-2-2-2-2-2-2-2-2-2-2-2-2-2-2-2-2-2-2-2-2-2-2-2-|
--5-5-5-5---------------------------------------------------------|



--------------------------------------------------------|
--------------------------------------------------------|
----------3-3-3-3-2-2-2-2-------------------------------|
--5-5-5-5-----------------4-4-4-4-4-4-4-4-4-4-4-4-3--3--|



-------------------------------------------------------------|
-------------------------------------------------------------|
--5--5-5-5-5-5-5-5-5-5-5-5-5-5-5-5-5-5-5-5-5-5-5-5-5-5-5-5-5-|
-------------------------------------------------------------|



-------------------------------------------------------------|
-------------------------------------------------------------|
--5--5-5-5-5-5-5-5-5-5-5-5-5-5-5-5-5-5-5-5-5-5-5-5-5-5-5-5-5-|
-------------------------------------------------------------|



-------------------------------------------------------------|
-------------------------------------------------------------|
-------------------------------------------------------------|
--6--6-6-6-6-6-6-6-6-6-6-6-6-6-6-6-6-6-6-6-6-6-6-6-6-6-6-6-6-|



---------------------------------------------------|
---------------------------------------------------|
---------------------------------------------------|
--8--8-8-8-8-8-8-8-8-8-8-8-8-9--9-9-9-9-9--9-9-9-9-|



---------------------------------------------------------------------------
---------------------------------------------------------------------------
---------------------------------------------------------------------------
-10-10-10-10-10-10-10-10-10-10-10-10-10-10-10-10-10-10-10-10-10-10-10-10-10



-------------------------------------------------------------|
-------------------------------------------------------------|
-------------------------------------------------------------|
--9--9-9-9-9-9-9-9-9-9-9-9-9-9-9-9-9-9-9-9-9-9-9-9-9-9-9-9-9-|



-------------------------------------------------------------|
-------------------------------------------------------------|
-------------------------------------------------------------|
--8--8-8-8-8-8-8-8-8-8-8-8-8-8-8-8-8-8-8-8-8-8-8-8-8-8-8-8-8-|



----------------------------------------------|
----------------------------------------------|
----------------------------------------8--7--|
--3--3-3-3-3-3-3-3-3-3-3-3-3-5--5-5-5-5-------|



-------------------------------------------------------------|
-------------------------------------------------------------|
--5--5-5-5-5-5-5-5-5-5-5-5-5-5-5-5-5-5-5-5-5-5-5-5-5-5-5-5-5-|
-------------------------------------------------------------|



-------------------------------------------------------------|
-------------------------------------------------------------|
--5--5-5-5-5-5-5-5-5-5-5-5-5-5-5-5-5-5-5-5-5-5-5-5-5-5-5-5-5-|
-------------------------------------------------------------|



-------------------------------------------------------------|
-------------------------------------------------------------|
-------------------------------------------------------------|
--6--6-6-6-6-6-6-6-6-6-6-6-6-6-6-6-6-6-6-6-6-6-6-6-6-6-6-6-6-|



---------------------------------------------------|
---------------------------------------------------|
---------------------------------------------------|
--8--8-8-8-8-8-8-8-8-8-8-8-8-9--9-9-9-9-9--9-9-9-9-|



|---------------------------------------
|---------------------------------------
|--------------------------------------
|--10--10-10-10-10-10-10-10-10-10-10-10-

|-----------------------------------------
|-----------------------------------------
|-----------------------------------------
|10-10-10-10-10-10-10-10-10-10-10-10-10-10



-------------------------------------------------------------|
-------------------------------------------------------------|
-------------------------------------------------------------|
--9--9-9-9-9-9-9-9-9-9-9-9-9-9-9-9-9-9-9-9-9-9-9-9-9-9-9-9-9-|



-------------------------------------------------------------|
-------------------------------------------------------------|
-------------------------------------------------------------|
--8--8-8-8-8-8-8-8-8-8-8-8-8-8-8-8-8-8-8-8-8-8-8-8-8-8-8-8-8-|



----------------------------------------------|------------------|
----------------------------------------------|------------------|
----------------------------------------8--7--|------------------|
--3--3-3-3-3-3-3-3-3-3-3-3-3-5--5-5-5-5-------|------------------|



comments
We did not receive enough feedback on this tab! Please rate:
1 2 3 4 5
I want to post or [tab]
guest
You may want to rate the tab now too:
select rating
Please do not post tabs as comments. Select "correction" instead!