Oops, an error
Loading. Please wait.

Thank Your Lucky Scars Tab

317 views 1 this week
no commentswrite comment
1 2 3 4 5
excellent!
x 2
Autoscroll
+/-
esc
set tempo
stop
Contributor
Difficulty
Tuning
novice
D G C F A D
Hey! There's an official Ultimate Guitar app which is ideal
for learning songs when you're away from computer. Get the app
WARNING: You are trying to view
                                    content from Ultimate-Guitar.com
                                    in an unauthorized application,
                                    which is prohibited.

                                    Please use an official Ultimate
                                    Guitar Tabs application for iPhone,
                                    iPad or Android to access legitimate
                                    chords, guitar, bass, and drum tabs
                                    from Ultimate-Guitar.com database.

                                    Type "ultimate guitar tabs" in Apple
                                    App Store's or Android Market's
                                    search to find the application.
Cradle of Filth
Thank Your Lucky Scars
D-G-C-F-A-D
tabbed by andherembrace

all the  riffs and solo with timeline


Riff 1 (4 lines)
                                                            0:05
-----------------------------------------------------------------|
-----------------------------------------------------------------|
-----------------------------------------------------------------|
-9-9-9-9-9-9-9-9-9-9-9-9-10-9-10-9-9-9-9-9-9-9-9-9-9-9-9-9-9-9-9-|
-7-7-7-7-7-7-7-7-7-7-7-7--8-7--8-7-7-7-7-7-7-7-7-7-7-7-7-7-7-7-7-|
-----------------------------------------------------------------|

0:05                                                          0:07
-------------------------------------------------------------------|
-------------------------------------------------------------------|
-------------------------------------------------------------------|
-10101010101010101010101010101010----------------------------------|
--8-8-8-8-8-8-8-8-8-8-8-8-8-8-8-8-1010101010101010-9-9-9-9-7-7-7-7-|
-----------------------------------8-8-8-8-8-8-8-8-7-7-7-7-5-5-5-5-|

0:07                                                        0:10 
-----------------------------------------------------------------|
-----------------------------------------------------------------|
-----------------------------------------------------------------|
-9-9-9-9-9-9-9-9-9-9-9-9-10-9-10-9-9-9-9-9-9-9-9-9-9-9-9-9-9-9-9-|
-7-7-7-7-7-7-7-7-7-7-7-7--8-7--8-7-7-7-7-7-7-7-7-7-7-7-7-7-7-7-7-|
-----------------------------------------------------------------|
 
0:10                                                                      0:12
-----------------------------------------------------------------------------|
-----------------------------------------------------------------------------|
-----------------------------------------------------------------------------|
10101010101010101010101010101010----------12-12-12-12------------------------|
-8-8-8-8-8-8-8-8-8-8-8-8-8-8-8-8-10101010-10-10-10-10-12-12-12-12-13-13-13-13|
----------------------------------8-8-8-8-------------10-10-10-10-11-11-11-11|

Riff 2 (4 lines) with Riff 1
0:13                                                             0:15
----------------------------------------------------------------------|
----------------------------------------------------------------------|
-----------------9-9-9-9----------------------------------------------|
---------9-9-9-9---------9-9-9-9---------9-9-9-9-10-10-10-10-9-9-9-9--|
-7-7-7-7-------------------------7-7-7-7------------------------------|
----------------------------------------------------------------------|

0:15                                                                       0:18
-------------------------------------------------------------------------------|
-------------------------------------------------------------------------------|
-------------------------------------------------------------------------------|
-------10-10-10-10-9-9-9-9-10-10-10-10-----------12-12-12-12-------------------|
8-8-8-8-------------------------------10-10-10-10-----------12-12-10-10-9-9-9-9|
-------------------------------------------------------------------------------|

0;18                                                              0:21
----------------------------------------------------------------------|
----------------------------------------------------------------------|
-----------------9-9-9-9----------------------------------------------|
---------9-9-9-9---------9-9-9-9---------9-9-9-9-10-10-10-10-9-9-9-9--|
-7-7-7-7-------------------------7-7-7-7------------------------------|
----------------------------------------------------------------------|

0:21                                                                      0:23
-------------------------------------------------------------------------------|
------------------------------------------------------------------__-----------|
-----------------------------------------------------------------/  \----------|
-------10-10-10-10-9-9-9-9-10-10-10-10-10-10-10-10-12-12-12-12-10-12-10-9-9-9--|
8-8-8-8------------------------------------------------------------------------|
-------------------------------------------------------------------------------|


Riffs 1 and 2 repeat 0:23-0:34


Riff 3
0:34                                                                      0:44
------------------------------------------------------------------------------|
------------------------------------------------------------------------------|
------------------------------------------------------------------------------|
------------------------------------------------------------------------------|
-7--6-7-6--4-3-6-4--7--6-7-6--4-3-6-4-6-7--6-7-6--4-3-6-4--7--6-7-6--4-3-6-4-6|
-5--4-5-4--2-1-4-2--5--4-5-4--2-1-4\2/4-5--4-5-4--2-1-4-2--5--4-5-4--2-1-4\2/4|


Riff 4
0:44                                           0:50
---------------------------------------------------|
--------------------------------------------_------|
-------------------------------------------/ \-----|
------------------------------------7-6-6-5-6-5-4--|
-7--6-7-6--4-3-3-4-3-4-3--7--6-7-6--5-4-4-3-4-3-2--|
-5--4-5-4--2-1-1-2-1-2-1--5--4-5-4--5-4-4-3/4\3-2--|

Riff 4 repeats another 3 times 0;50-1:06


Riff 5 (4 lines)
1:06                                                         1:08
-----------------------------------------------------------------|
-----------------------------------------------------------------|
-----------------------------------------------------------------|
-----------------------------------------------------------------|
10101010101010101010101010101010-9-9-9-9-9-9-9-9-9-9-9-9-9-9-9-9-|
-8-8-8-8-8-8-8-8-8-8-8-8-8-8-8-8-7-7-7-7-7-7-7-7-7-7-7-7-7-7-7-7-|

1:09                                                        1:11
-----------------------------------------------------------------|
-----------------------------------------------------------------|
-----------------------------------------------------------------|
-----------------------------------------------------------------|
-6-6-6-6-6-6-6-6-6-6-6-6-5-5-6-6-5-5-5-5-5-5-5-5-4-4-4-4-4-4-4-4-|
-4-4-4-4-4-4-4-4-4-4-4-4-3-3-4-4-3-3-3-3-3-3-3-3-2-2-2-2-2-2-2-2-|

1:11                                                         1:14
-----------------------------------------------------------------|
-----------------------------------------------------------------|
-----------------------------------------------------------------|
-----------------------------------------------------------------|
10101010101010101010101010101010-9-9-9-9-9-9-9-9-9-9-9-9-9-9-9-9-|
-8-8-8-8-8-8-8-8-8-8-8-8-8-8-8-8-7-7-7-7-7-7-7-7-7-7-7-7-7-7-7-7-|

1:14                                                        1:16
------------------------------------------------------------------|
------------------------------------------------------------------|
------------------------------------------------------------------|
------------------------------------------------------------------|
-5-5-5-5-5-5-5-5-5-5-5-5-4-4-5-5-6-6-6-6-6-6-6-6-7-7-7-7-7-7-7-7--|
-3-3-3-3-3-3-3-3-3-3-3-3-2-2-3-3-4-4-4-4-4-4-4-4-5-5-5-5-5-5-5-5--|

Riff 5 repeats 1:16-1:27


Riff 6 (2 lines)
1:27                                         1:33
-------------------------------------------------|
-------------------------------------------------|
---------------------------------------_---------|
-----5-7-----8-----7-6-----5-7--------/ \--------|
-*-*-3-5-*-*-6-*-*-5-4-*-*-3-5-*-*-6-5-6-5-8-6---|
-0-0-----0-0---0-0-----0-0-----0-0---------6-4---|

1:33                                         1:37
-------------------------------------------------|
-------------------------------------------------|
---------------------------------------_---------|
-----5-7-----8-----7-6-----5-7--------/ \--------|
-*-*-3-5-*-*-6-*-*-5-4-*-*-3-5-*-*-6-5-6-5-5-6---|
-0-0-----0-0---0-0-----0-0-----0-0---------3-4---|

Riff 6 repeats 1:37-1:48

Riff 7 (4 lines)
1:48                                                          1:51
-------------------------------------------------------------------|
-------------------------------------------------------------------|
-------------------------------------------------------------------|
---------5-5-5-5-------------------------5-5-5-5---------3-3-6-6---|
-3-3-3-3---------4-4-4-4-4-6-4-4-3-3-3-3---------4-4-4-4-----------|
-------------------------------------------------------------------|

1:51                                                          1:54
-------------------------------------------------------------------|
-------------------------------------------------------------------|
-------------------------------------------------------------------|
---------5-5-5-5-----------------8-8-8-8-7-7-7-7-8-8-8-810101010---|
-3-3-3-3---------4-4-4-4-4-6-4-4-6-6-6-6-5-5-5-5-6-6-6-6-8-8-8-8---|
-------------------------------------------------------------------|

1:54                                                           1:56
-------------------------------------------------------------------|
-------------------------------------------------------------------|
-------------------------------------------------------------------|
---------5-5-5-5-------------------------5-5-5-5---------3-3-6-6---|
-3-3-3-3---------4-4-4-4-4-6-4-4-3-3-3-3---------4-4-4-4-----------|
-------------------------------------------------------------------|

1:56                                          1:59
--------------------------------------------------|
--------------------------------------------------|
--------------------------------------------------|
---------5-5-5-5----------------------------------|
-3-3-3-3---------4-4-4-4-4-6-4-4-5-5-3-5-6-5-6-8--|
---------------------------------3-3-1-3-4-3-4-6--|


Riff 8
1:59                                                           2:04
---------------------------------------------------------------------|
---------------------------------------------------------------------|
---------------------------------------------------------------------|
-9--9--9-10-9-10-9--9--9--10-9--10-10-10-10--------------------------|
-7--7--7--8-7-8--7--7--7--8--7--8--8--8--8--101010101010-9-9-9-7-7-7-|
-7--7--7--8\7/8--7--7--7--8--7--8--8--8--8--8-8-8-8-8-8--7-7-7-5-5-5-|

2:04                                                                            2:09
-------------------------------------------------------------------------------------|
-------------------------------------------------------------------------------------|
-------------------------------------------------------------------------------------|
9--9--9-10-9-10-9--9--9--10-9--10-10-10-10------------12-12-12-12--------------------|
7--7--7--8-7-8--7--7--7--8--7--8--8--8--8-10101010101010-10-10-1012-12-12-12-13131313|
7--7--7--8\7/8--7--7--7--8--7--8--8--8--8-8-8-8-8-8-8------------10-10-10-10-11111111|


Riffs 1 and 2 repeat 2:09-2:20
riff 1 end harmony
--------__-----|
-------/  \----|
/9-10-9-10-9-7-|
---------------|
---------------|
---------------|
 
Riffs 1 and 2 repeat 2:20-2:31

Riff 3 2:31-2:41

Riff 4 repeats 2:41-3:03
 
Riff 5 repeats 3:03- 3:25 


SOLO with Riff 6 (i broke it into sections so you can understand
 where 'the runs' start and finish 

3:25          __                                                   3:29
             /  \                                        __
-/17-15-14-14-15-14----14-----------|-------------------/  \--------------|
--------------------16----16-15-16~-|-/16-16-15-13-15-13-15-13------------|
------------------------------------|--------------------------15-12-14~~-|
------------------------------------|-------------------------------------|
------------------------------------|-------------------------------------|
------------------------------------|-------------------------------------|

3:29                                                       3:32
----------------------------------------------------------------|
----------------------------------------------------------------|
-14--12--11--12--14--12--11--12--14--12--11--12--14--12--11--12-|
----------------------------------------------------------------|
----------------------------------------------------------------|
----------------------------------------------------------------|

3:32                                                           3:34
------------------------------------------|------------------------|
----------------------------10-11-10------|-----------11-13-15-13--|
-14-12-11-12-14--12--11--12----------12-11|--11-12-14--------------|
------------------------------------------|------------------------|
------------------------------------------|------------------------|
------------------------------------------|------------------------|


3:34                                                3:40

-------14-15-14------|-------------------------------------|
-13-15----------16-14|-16--------15~~~~~\-/16--15--13--15~\|
---------------------|-------------------------------------|
---------------------|-------------------------------------|
---------------------|-------------------------------------|
---------------------|-------------------------------------|

3:41                                                              3:47

  ///  /// /// ///                                     ///
-/17---15--14--15----14-15-14--------------///-///-///---)(-10/15~~~--|
------------------------------16-15-16~~\--/16-15--11--10-------------|
----------------------------------------------------------------------|
----------------------------------------------------------------------|
----------------------------------------------------------------------|
----------------------------------------------------------------------|

Riff 7 3:45-3:56

Riff 8 3:56-4:07

Riff 1 and 2 4:07-4:28

Riff 3 4:28-end

comments
We did not receive enough feedback on this tab! Please rate:
print report bad tab
1 2 3 4 5
I want to post or [tab]
guest
You may want to rate the tab now too:
select rating
Please do not post tabs as comments. Select "correction" instead!