Oops, an error
Loading. Please wait.

The Persecution Song Tab

ver1
ver1

Whole song

Interactive

More versions @911Tabs.com
2,062 views 3 this week
1 commentread comment
1 2 3 4 5
excellent!
x 1
add to favorites launch autoscroll
font size
0
reset
Autoscroll
+/-
esc
set tempo
stop
Contributor
Difficulty
Tuning
novice
D G C F A D
WARNING: You are trying to view
                                    content from Ultimate-Guitar.com
                                    in an unauthorized application,
                                    which is prohibited.

                                    Please use an official Ultimate
                                    Guitar Tabs application for iPhone,
                                    iPad or Android to access legitimate
                                    chords, guitar, bass, and drum tabs
                                    from Ultimate-Guitar.com database.

                                    Type "ultimate guitar tabs" in Apple
                                    App Store's or Android Market's
                                    search to find the application.
CRADLE OF FILTH

THE PERSECUTION SONG


DGCFAD


TABBED BY-andherembrace

updated 10/15/2012



GT1
---------------------------------------------------------------------------|
---------------------------------------------------------------------____--|
----11--------9----12-----------9-----11--------9----12-------------/    \-|
--9---9-9---9---10---10\7-7---7-----9---9-9---9---10---10\7-7--10--9-10-9\7|
7---------7-----------------7-----7---------7------------------------------|
---------------------------------------------------------------------------|

GT2
------------------------------------------------------------------------|
------------------------------------------------------------------------|
------------------------------------------------------------------------|
-----------------5-5-5-5---7-7-7-7---------------------5-5-5-5---7-7-7-7|
2-2-2-2-2-2-2-2--3-3-3-3---5-5-5-5----2-2-2-2-2-2-2-2--3-3-3-3---5-5-5-5|
0-0-0-0-0-0-0-0-----------------------0-0-0-0-0-0-0-0-------------------|
* * * * * * * *  * * * *   * * * *    * * * * * * * *  * * * *   * * * *

GT1
---------------------------------------------------------------------------|
---------------------------------------------------------------------____--|
----11--------9----12-----------9-----11--------9----12-------------/    \-|
--9---9-9---9---10---10\7-7---7-----9---9-9---9---10---10\7-7--10--9-10-9\7|
7---------7-----------------7-----7---------7------------------------------|
---------------------------------------------------------------------------|

GT2
------------------------------------------------------------------------|
------------------------------------------------------------------------|
------------------------------------------------------------------------|
-----------------5-5-5-5---7-7-7-7---------------------5-5-5-5---7-7-7-7|
2-2-2-2-2-2-2-2--3-3-3-3---5-5-5-5----2-2-2-2-2-2-2-2--3-3-3-3---5-5-5-5|
0-0-0-0-0-0-0-0-----------------------0-0-0-0-0-0-0-0-------------------|
* * * * * * * *  * * * *   * * * *    * * * * * * * *  * * * *   * * * *

0:40

B
----------------------------------------------------------|
----------------------------------------------------------|
----------------------------------------------------------|
------11-9--8---------------------12-11-10----------------|
-7----8--7--6-----7--9|--10--7----10--9-8-----7--9|--10---|
-5----8--7--6-----5--7|--8-|-5----10--9-8-----5--7|--8-|--|

--------------------------------------------------------------------|
--------------------------------------------------------------------|
--------------------------------------------------------------------|
------11-9--8---------------------12-11-10--------------------------|
-7----8--7--6-----7--9|--10--7----10--9-8-----7--9|--10--7--9|--10--|
-5----8--7--6-----5--7|--8-|-5----10--9-8-----5--7|--8-|-5--7|--8-|-|



1:02
B
--------------------------------------------------------------------------|
--------------------------------------------------------------------------|
------------___-------------___--------------___-------____-------___-----|
-----------/---\-----------/---\------------/---\-----/----\-----/   \----|
---------10-9-7-9---------9-7-6-7---------10-9-7-9--12-10-9-10-10-9-7-9---|
-000000------------000000----------000000---------------------------------|
 ******            ******          ******

--------------------------------------------------------------------------|
--------------------------------------------------------------------------|
------------___-------------___--------------___-------____-------___-----|
-----------/---\-----------/---\------------/---\-----/----\-----/   \----|
---------10-9-7-9---------9-7-6-7---------10-9-7-9--12-10-9-10-10-9-7-9---|
-000000------------000000----------000000---------------------------------|
 ******            ******          ******

--------------------------------------------------------------------------|
--------------------------------------------------------------------------|
------------___-------------___--------------___-------____-------___-----|
-----------/---\-----------/---\------------/---\-----/----\-----/   \----|
---------10-9-7-9---------9-7-6-7---------10-9-7-9--12-10-9-10-10-9-7-9---|
-000000------------000000----------000000---------------------------------|
 ******            ******          ******

-----------------------------------------------------------------|
-----------------------------------------------------------------|
------------___-------------___--------------___-----------------|
-----------/---\-----------/---\------------/---\----------------|
---------10-9-7-9---------9-7-6-7---------10-9-7-9---7--9|--10---|
-000000------------000000----------000000------------5--7|--8-|--|
 ******            ******          ******



1:22

GT1
---------------------------------------------------------------------------|
---------------------------------------------------------------------____--|
----11--------9----12-----------9-----11--------9----12-------------/    \-|
--9---9-9---9---10---10\7-7---7-----9---9-9---9---10---10\7-7--10--9-10-9\7|
7---------7-----------------7-----7---------7------------------------------|
---------------------------------------------------------------------------|

GT2
------------------------------------------------------------------------|
------------------------------------------------------------------------|
------------------------------------------------------------------------|
-----------------5-5-5-5---7-7-7-7---------------------5-5-5-5---7-7-7-7|
2-2-2-2-2-2-2-2--3-3-3-3---5-5-5-5----2-2-2-2-2-2-2-2--3-3-3-3---5-5-5-5|
0-0-0-0-0-0-0-0-----------------------0-0-0-0-0-0-0-0-------------------|
* * * * * * * *  * * * *   * * * *    * * * * * * * *  * * * *   * * * *

GT1
---------------------------------------------------------------------------|
---------------------------------------------------------------------____--|
----11--------9----12-----------9-----11--------9----12-------------/    \-|
--9---9-9---9---10---10\7-7---7-----9---9-9---9---10---10\7-7--10--9-10-9\7|
7---------7-----------------7-----7---------7------------------------------|
---------------------------------------------------------------------------|

GT2
------------------------------------------------------------------------|
------------------------------------------------------------------------|
------------------------------------------------------------------------|
-----------------5-5-5-5---7-7-7-7---------------------5-5-5-5---7-7-7-7|
2-2-2-2-2-2-2-2--3-3-3-3---5-5-5-5----2-2-2-2-2-2-2-2--3-3-3-3---5-5-5-5|
0-0-0-0-0-0-0-0-----------------------0-0-0-0-0-0-0-0-------------------|
* * * * * * * *  * * * *   * * * *    * * * * * * * *  * * * *   * * * *


1:52
B
----------------------------------------------------------|
----------------------------------------------------------|
----------------------------------------------------------|
------11-9--8---------------------12-11-10----------------|
-7----8--7--6-----7--9|--10--7----10--9-8-----7--9|--10---|
-5----8--7--6-----5--7|--8-|-5----10--9-8-----5--7|--8-|--|

---------------------------------------------------------|
---------------------------------------------------------|
---------------------------------------------------------|
------11-9--8---------------------12-11-10---------------|
-7----8--7--6-----7--9|--10--7----10--9-8-----7--9|--10--|
-5----8--7--6-----5--7|--8-|-5----10--9-8-----5--7|--8-|-|




2:12
B
--------------------------------------------------------------------------|
--------------------------------------------------------------------------|
------------___-------------___--------------___-------____-------___-----|
-----------/---\-----------/---\------------/---\-----/----\-----/   \----|
---------10-9-7-9---------9-7-6-7---------10-9-7-9--12-10-9-10-10-9-7-9---|
-000000------------000000----------000000---------------------------------|
 ******            ******          ******

--------------------------------------------------------------------------|
--------------------------------------------------------------------------|
------------___-------------___--------------___-------____-------___-----|
-----------/---\-----------/---\------------/---\-----/----\-----/   \----|
---------10-9-7-9---------9-7-6-7---------10-9-7-9--12-10-9-10-10-9-7-9---|
-000000------------000000----------000000---------------------------------|
 ******            ******          ******

--------------------------------------------------------------------------|
--------------------------------------------------------------------------|
------------___-------------___--------------___-------____-------___-----|
-----------/---\-----------/---\------------/---\-----/----\-----/   \----|
---------10-9-7-9---------9-7-6-7---------10-9-7-9--12-10-9-10-10-9-7-9---|
-000000------------000000----------000000---------------------------------|
 ******            ******          ******

---------------------------------------------------------------------------|
---------------------------------------------------------------------------|
------------___-------------___--------------___-------____-------___------|
-----------/---\-----------/---\------------/---\-----/----\-----/   \---11|
---------10-9-7-9---------9-7-6-7---------10-9-7-9--12-10-9-10-10-9-7-9--9-|
-000000------------000000----------000000--------------------------------9-|
 ******            ******          ******




2:56
--------------------------------------------------------|
----------------]---------------------------------------|
----------------]---------------------------------------|
-----------11---]----------11----7--6----7--------------|
--9---5----9-\--]-9---5----9-----5--4----5--8---9---5---|
--7---3----9-\--]-7---3----9-----5--4----5--6---7---3---|






3:13
GT1
--------------------------------------------------------|
--------------------------------------------------------|
--------------------------------------------------------|
--------------------------------------------------------|
777777777777----999999999999----101010101010101010101010|
------------7777------------7777------------------------|

GT2
///----------------///--------------///-----------------|
-----------------------------10-12----------------------|
-9-----------11-12--9----------------9------------------|
--------------------------------------------------------|
--------------------------------------------------------|
--------------------------------------------------------|

GT1
-------------------------------|
-------------------------------|
-------------------------------|
-------------------------------|
----12121212101210999910101010-|
7777---------------------------|

GT2
-------------------------------|
-------///---10-12-///---12-13-|
-11-12--9-----------9----------|
-------------------------------|
-------------------------------|
-------------------------------|

GT1
--------------------------------------------|
--------------------------------------------|
--------------------------------------------|
--------------------------------------------|
-777777777777-991010------------991010------|
--------------------888888888888------------|
GT2
///----------------///--------------///-----------------|
-----------------------------10-12----------------------|
-9-----------11-12--9----------------9------------------|
--------------------------------------------------------|
--------------------------------------------------------|
--------------------------------------------------------|

GT1
---------------------------------------------|
---------------------------------------------|
---------------------------------------------|
---------------------------------------------|
-------------99101012121212101210999910101010|
-777777777777--------------------------------|
GT2
-------------------------------|
-------///---10-12-///---12-13-|
-11-12--9-----------9----------|
-------------------------------|
-------------------------------|
-------------------------------|

GT1
--------------------------------------------------------|
--------------------------------------------------------|
--------------------------------------------------------|
--------------------------------------------------------|
777777777777----999999999999----101010101010101010101010|
------------7777------------7777------------------------|

GT2
///----------------///--------------///-----------------|
-----------------------------10-12----------------------|
-9-----------11-12--9----------------9------------------|
--------------------------------------------------------|
--------------------------------------------------------|
--------------------------------------------------------|

GT1
-------------------------------|
-------------------------------|
-------------------------------|
-------------------------------|
----12121212101210999910101010-|
7777---------------------------|

GT2
-------------------------------|
-------///---10-12-///---12-13-|
-11-12--9-----------9----------|
-------------------------------|
-------------------------------|
-------------------------------|

GT1
--------------------------------------------|
--------------------------------------------|
--------------------------------------------|
--------------------------------------------|
-777777777777-991010------------991010------|
--------------------888888888888------------|
GT2
///----------------///--------------///-----------------|
-----------------------------10-12----------------------|
-9-----------11-12--9----------------9------------------|
--------------------------------------------------------|
--------------------------------------------------------|
--------------------------------------------------------|

GT1
---------------------------------------------|
---------------------------------------------|
---------------------------------------------|
---------------------------------------------|
-------------99101012121212101210999910101010|
-777777777777--------------------------------|
GT2
-------------------------------|
-------///---10-12-///---12-13-|
-11-12--9-----------9----------|
-------------------------------|
-------------------------------|
-------------------------------|




3:33
B
------------------------------------------------------------------------|
------------------------------------------------------------------------|
------------------------------------------------------------------------|
--------------------------------7-9-----------------------7-9-----9-10--|
-777777777777-9-10-777777777777-----777777777777-9-10-777-----777-------|
------------------------------------------------------------------------|
 ************      ************     ************      ***     ***

------------------------------------------------------------------------|
------------------------------------------------------------------------|
------------------------------------------------------------------------|
--------------------------------7-9-----------------------7-9-----9-10--|
-777777777777-9-10-777777777777-----777777777777-9-10-777-----777-------|
------------------------------------------------------------------------|
 ************      ************     ************      ***     ***



3:43

---------------------------------------------------|
---------------------------------------------------|
---------------------------------------------------|
-9999999999999999-11111111111111111111111111111111-|
-7777777777777777--9-9-9-9-9-9-9-9-9-9-9-9-9-9-9-9-|
---------------------------------------------------|

------------------------------------------------------------|
------------------------------------------------------------|
---------------------------------99999999-11111111-12121212-|
12121212121212121212121212121212-77777777--9-9-9-9-10101010-|
10101010101010101010101010101010----------------------------|
------------------------------------------------------------|


---------------------------------------------------|
---------------------------------------------------|
---------------------------------------------------|
-999999999999999911111111111111111111111111111111--|
-7777777777777777-9-9-9-9-9-9-9-9-9-9-9-9-9-9-9-9--|
---------------------------------------------------|

-----------------------------------------------------------|
-----------------------------------------------------------|
---------------------------------999999991111111112121212--|
-1212121212121212121212121212121277777777-9-9-9-910101010--|
-10101010101010101010101010101010--------------------------|
-----------------------------------------------------------|


----------------------------------------------------------------|
----------------------------------------------------------------|
----------------------------------------------------------------|
----------------------7-----------------------------------------|
-2----10---9--7-5-----5----10-9--2----10---9--7-5------33333333-|
-0-----8---7--5-3-------0-0-8-7--0-----8---7--5-3------11111111-|
                        * *                            ********

----------------------------------------------------------------|
----------------------------------------------------------------|
----------------------------------------------------------------|
----------------------7--------------------------------7-7-7-7--|
-2----10---9--7-5-----5----10-9--2----10---9--7-5------5-5-5-5--|
-0-----8---7--5-3-------0-0-8-7--0-----8---7--5-3------5-5-5-5--|
                        * *                            


4:13

GT1
---------------------------------------------------------------------------|
---------------------------------------------------------------------____--|
----11--------9----12-----------9-----11--------9----12-------------/    \-|
--9---9-9---9---10---10\7-7---7-----9---9-9---9---10---10\7-7--10--9-10-9\7|
7---------7-----------------7-----7---------7------------------------------|
---------------------------------------------------------------------------|

GT2
------------------------------------------------------------------------|
------------------------------------------------------------------------|
------------------------------------------------------------------------|
-----------------5-5-5-5---7-7-7-7---------------------5-5-5-5---7-7-7-7|
2-2-2-2-2-2-2-2--3-3-3-3---5-5-5-5----2-2-2-2-2-2-2-2--3-3-3-3---5-5-5-5|
0-0-0-0-0-0-0-0-----------------------0-0-0-0-0-0-0-0-------------------|
* * * * * * * *  * * * *   * * * *    * * * * * * * *  * * * *   * * * *

GT1
---------------------------------------------------------------------------|
---------------------------------------------------------------------____--|
----11--------9----12-----------9-----11--------9----12-------------/    \-|
--9---9-9---9---10---10\7-7---7-----9---9-9---9---10---10\7-7--10--9-10-9\7|
7---------7-----------------7-----7---------7------------------------------|
---------------------------------------------------------------------------|

GT2
------------------------------------------------------------------------|
------------------------------------------------------------------------|
------------------------------------------------------------------------|
-----------------5-5-5-5---7-7-7-7---------------------5-5-5-5---7-7-7-7|
2-2-2-2-2-2-2-2--3-3-3-3---5-5-5-5----2-2-2-2-2-2-2-2--3-3-3-3---5-5-5-5|
0-0-0-0-0-0-0-0-----------------------0-0-0-0-0-0-0-0-------------------|
* * * * * * * *  * * * *   * * * *    * * * * * * * *  * * * *   * * * *

B
----------------------------------------------------------|
----------------------------------------------------------|
----------------------------------------------------------|
------11-9--8---------------------12-11-10----------------|
-7----8--7--6-----7--9|--10--7----10--9-8-----7--9|--10---|
-5----8--7--6-----5--7|--8-|-5----10--9-8-----5--7|--8-|--|

---------------------------------------------------------|
---------------------------------------------------------|
---------------------------------------------------------|
------11-9--8---------------------12-11-10---------------|
-7----8--7--6-----7--9|--10--7----10--9-8-----7--9|--10--|
-5----8--7--6-----5--7|--8-|-5----10--9-8-----5--7|--8-|-|




B
--------------------------------------------------------------------------|
--------------------------------------------------------------------------|
------------___-------------___--------------___-------____-------___-----|
-----------/---\-----------/---\------------/---\-----/----\-----/   \----|
---------10-9-7-9---------9-7-6-7---------10-9-7-9--12-10-9-10-10-9-7-9---|
-000000------------000000----------000000---------------------------------|
 ******            ******          ******

--------------------------------------------------------------------------|
--------------------------------------------------------------------------|
------------___-------------___--------------___-------____-------___-----|
-----------/---\-----------/---\------------/---\-----/----\-----/   \----|
---------10-9-7-9---------9-7-6-7---------10-9-7-9--12-10-9-10-10-9-7-9---|
-000000------------000000----------000000---------------------------------|
 ******            ******          ******

--------------------------------------------------------------------------|
--------------------------------------------------------------------------|
------------___-------------___--------------___-------____-------___-----|
-----------/---\-----------/---\------------/---\-----/----\-----/   \----|
---------10-9-7-9---------9-7-6-7---------10-9-7-9--12-10-9-10-10-9-7-9---|
-000000------------000000----------000000---------------------------------|
 ******            ******          ******
-----------------------------------------------------------------|
-----------------------------------------------------------------|
------------___-------------___--------------___-----------------|
-----------/---\-----------/---\------------/---\----------------|
---------10-9-7-9---------9-7-6-7---------10-9-7-9---7--9|--10---|
-000000------------000000----------000000------------5--7|--8-|--|
 ******            ******          ******
comments
We did not receive enough feedback on this tab! Please rate:
print report bad tab
1 2 3 4 5
1 comment total.
0 reply
andherembrace wrote on April 1 2011, 09:15 pm

7th note is a 9 on the 4th string not a 7..

I want to post or [tab]
guest
You may want to rate the tab now too:
select rating
Please do not post tabs as comments. Select "correction" instead!