Oops, an error
Loading. Please wait.

Thornography Tab

5,066 views 6 this week
no commentswrite comment
1 2 3 4 5
excellent!
x 2
Autoscroll
+/-
esc
set tempo
stop
Contributor
Hey! There's an official Ultimate Guitar app which is ideal
for learning songs when you're away from computer. Get the app
WARNING: You are trying to view
                                    content from Ultimate-Guitar.com
                                    in an unauthorized application,
                                    which is prohibited.

                                    Please use an official Ultimate
                                    Guitar Tabs application for iPhone,
                                    iPad or Android to access legitimate
                                    chords, guitar, bass, and drum tabs
                                    from Ultimate-Guitar.com database.

                                    Type "ultimate guitar tabs" in Apple
                                    App Store's or Android Market's
                                    search to find the application.
Thornography


Duration Legend
---------------
W - whole
H - half
Q - quarter
E - 8th
S - 16th
T - 32nd
X - 64th
. - note dotted
|-n-|  - n-tuplets


Tablature Legend
----------------
L - tied note
x - dead note
g - grace note
(n) - ghost note
> - accentuded note
NH - natural harmonic
AH - artificial harmonic
TH - tapped harmonic
SH - semi harmonic
PH - pitch harmonic
h - hammer on
p - pull off
b - bend
br - bendRelease
pb - preBend
pbr - preBendRelease
brb - bendReleaseBend
\n/ - tremolo bar dip
\n - tremolo bar dive
-/n - tremolo bar Release up
/n\ - tremolo bar inverted dip
/n - tremolo bar return
-\n - tremolo bar Release down
S - shift slide
s - legato slide
/ -  slide into from below or out of upwards
\ -  slide into from above or out of downwards
~ - vibrato
W - wide vibrato
tr - trill
TP - tremolo picking
T - tapping
S - slap
P - pop
< - fade in
^ - brush up
v - brush down














         Dirge Inferno                                   

                                                         

     E  E   E  E  E   E  E  E      E  E   E  E    E  E   E  E   
D||----------------------------|-------------------------------|
A||----------------------------|-------------------------------|
F||----------------------------|----------------------------7--|
C||-----9--10-----9--10-----9--|------9--10--9-------9--10-----|
G||--7---------7---------7-----|--/8------------/10------------|
D||----------------------------|-------------------------------|


                                                           W   
  E  E   E  E  E   E  E  E      E  E   E  E    E  E   E    E   
----------------------------|---------------------------------|
----------------------------|---------------------------------|
----------------------------|----------------------------<>9--|
-----9--10-----9--10-----9--|------9--10--9-------9--10-------|
--7---------7---------7-----|--/8------------/10--------------|
----------------------------|---------------------------------|


  E  E   E  E  E   E  E  E      E  E   E  E    E  E   E  E   
----------------------------|-------------------------------|
----------------------------|-------------------------------|
----------------------------|----------------------------7--|
-----9--10-----9--10-----9--|------9--10--9-------9--10-----|
--7---------7---------7-----|--/8------------/10------------|
----------------------------|-------------------------------|



                                                           W   
  E  E   E  E  E   E  E  E      E  E   E  E    E  E   E    E   
----------------------------|---------------------------------|
----------------------------|---------------------------------|
----------------------------|----------------------------<>9--|
-----9--10-----9--10-----9--|------9--10--9-------9--10-------|
--7---------7---------7-----|--/8------------/10--------------|
----------------------------|---------------------------------|


  T T T T T T T T  T  T  T  T T T T T T T T T  T  T  T  T T T T T T T T T  
--------------------------------------------------------------------------|
--------------------------------------------------------------------------|
--------------------------------------------------------------------------|
----------9-9-9-9-10-10-10-10---------9-9-9-9-10-10-10-10---------9-9-9-9-|
--7-7-7-7---------------------7-7-7-7---------------------7-7-7-7---------|
--------------------------------------------------------------------------|


  T T T T T T T T  T  T  T  T T T T T  T  T  T  T T T T T  T  T  T  T T T T T  
------------------------------------------------------------------------------|
------------------------------------------------------------------------------|
----------------------------------------------------------------------7-7-7-7-|
----------9-9-9-9-10-10-10-10-9-9-9-9-------------9-9-9-9-10-10-10-10---------|
--8-8-8-8-----------------------------10-10-10-10-----------------------------|
------------------------------------------------------------------------------|


  T T T T T T T T  T  T  T  T T T T T T T T T  T  T  T  T T T T T T T T T  
--------------------------------------------------------------------------|
--------------------------------------------------------------------------|
--------------------------------------------------------------------------|
----------9-9-9-9-10-10-10-10---------9-9-9-9-10-10-10-10---------9-9-9-9-|
--7-7-7-7---------------------7-7-7-7---------------------7-7-7-7---------|
--------------------------------------------------------------------------|


  T T T T T T T T  T  T  T  T T T T T  T  T  T  T T T T T  T  T  T  T T T T T  
------------------------------------------------------------------------------|
------------------------------------------------------------------------------|
----------------------------------------------------------------------9-9-9-9-|
----------9-9-9-9-10-10-10-10-9-9-9-9-------------9-9-9-9-10-10-10-10---------|
--8-8-8-8-----------------------------10-10-10-10-----------------------------|
------------------------------------------------------------------------------|


  T T T T T T T T  T  T  T  T T T T T T T T T  T  T  T  T T T T T T T T T  
--------------------------------------------------------------------------|
--------------------------------------------------------------------------|
--------------------------------------------------------------------------|
----------9-9-9-9-10-10-10-10---------9-9-9-9-10-10-10-10---------9-9-9-9-|
--7-7-7-7---------------------7-7-7-7---------------------7-7-7-7---------|
--------------------------------------------------------------------------|


  T T T T T T T T  T  T  T  T T T T T  T  T  T  T T T T T  T  T  T  T T T T T  
------------------------------------------------------------------------------|
------------------------------------------------------------------------------|
----------------------------------------------------------------------7-7-7-7-|
----------9-9-9-9-10-10-10-10-9-9-9-9-------------9-9-9-9-10-10-10-10---------|
--8-8-8-8-----------------------------10-10-10-10-----------------------------|
------------------------------------------------------------------------------|


  T T T T T T T T  T  T  T  T T T T T T T T T  T  T  T  T T T T T T T T T  
--------------------------------------------------------------------------|
--------------------------------------------------------------------------|
--------------------------------------------------------------------------|
----------9-9-9-9-10-10-10-10---------9-9-9-9-10-10-10-10---------9-9-9-9-|
--7-7-7-7---------------------7-7-7-7---------------------7-7-7-7---------|
--------------------------------------------------------------------------|


  T T T T T T T T  T  T  T  T T T T T S E  S E  E   
---------------------------------------------------|
---------------------------------------------------|
---------------------------------------------------|
----------9-9-9-9-10-10-10-10-9-9-9-9-7-6----------|
--8-8-8-8-----------------------------5-4--6-5--4--|
-------------------------------------------4-3--2--|


          PM PM PM PM PM PM PM PM PM PM PM PM PM PM PM PM PM  
  E  S E  T  T  S  T  T  S  T  T  S  T  T  S  T  T  S  T  T   
-------------------------------------------------------------|
-------------------------------------------------------------|
-------------------------------------------------------------|
-------------------------------------------------------------|
--3----2-----------------------------------------------------|
--1----0--0--0--0--0--0--0--0--0--0--0--0--0--0--0--0--0--0--|


          PM PM PM PM PM PM PM PM PM PM PM PM PM  
  E  S E  T  T  S  T  T  S  S  S  S  S  S  S  S   
-------------------------------------------------|
-------------------------------------------------|
-------------------------------------------------|
-------------------------------------------------|
--3----2-----------------------------------------|
--1----0--0--0--0--0--0--3--3--0--5--4--4--0--1--|


          PM PM PM PM PM PM PM PM PM PM PM PM PM PM PM PM PM  
  E  S E  T  T  S  T  T  S  T  T  S  T  T  S  T  T  S  T  T   
-------------------------------------------------------------|
-------------------------------------------------------------|
-------------------------------------------------------------|
-------------------------------------------------------------|
--3----2-----------------------------------------------------|
--1----0--0--0--0--0--0--0--0--0--0--0--0--0--0--0--0--0--0--|


          PM PM PM PM PM PM PM PM PM PM PM PM PM  
  E  S E  T  T  S  T  T  S  S  S  S  S  S  S  S   
-------------------------------------------------|
-------------------------------------------------|
-------------------------------------------------|
-------------------------------------------------|
--3----2-----------------------------------------|
--1----0--0--0--0--0--0--1--2--1--3--3--6--3--5--|


          PM PM PM PM PM PM PM PM PM PM PM PM PM PM PM PM PM  
  E  S E  T  T  S  T  T  S  T  T  S  T  T  S  T  T  S  T  T   
-------------------------------------------------------------|
-------------------------------------------------------------|
-------------------------------------------------------------|
-------------------------------------------------------------|
--3----2-----------------------------------------------------|
--1----0--0--0--0--0--0--0--0--0--0--0--0--0--0--0--0--0--0--|


          PM PM PM PM PM PM PM PM PM PM PM PM PM  
  E  S E  T  T  S  T  T  S  S  S  S  S  S  S  S   
-------------------------------------------------|
-------------------------------------------------|
-------------------------------------------------|
-------------------------------------------------|
--3----2-----------------------------------------|
--1----0--0--0--0--0--0--3--3--0--5--4--4--0--1--|


          PM PM PM PM PM PM PM PM PM PM PM PM PM PM PM PM PM  
  E  S E  T  T  S  T  T  S  T  T  S  T  T  S  T  T  S  T  T   
-------------------------------------------------------------|
-------------------------------------------------------------|
-------------------------------------------------------------|
-------------------------------------------------------------|
--3----2-----------------------------------------------------|
--1----0--0--0--0--0--0--0--0--0--0--0--0--0--0--0--0--0--0--|


          PM PM PM PM PM PM PM PM PM PM PM PM PM                          
  E  S E  T  T  S  T  T  S  S  S  S  S  S  S  S     E  E   Q    H         
-------------------------------------------------|-----------------------|
-------------------------------------------------|-----------------------|
-------------------------------------------------|-----------------------|
-------------------------------------------------|--7--L\----------------|
--3----2-----------------------------------------|--7--L\----------------|
--1----0--0--0--0--0--0--1--2--1--3--3--6--3--5--|--5--L\----------------|


-----------|-----------|
-----------|-----------|
-----------|-----------|
-----------|-----------|
-----------|-----------|
-----------|-----------|


  T T T T T T T T T T T T T T T T T T T T T T T T T T T T T T T T  
------------------------------------------------------------------|
------------------------------------------------------------------|
--6-6-6-6-5-5-5-5-6-6-6-6-8-8-8-8-9-9-9-9-8-8-8-8-6-6-6-6-8-8-8-8-|
--4-4-4-4-3-3-3-3-4-4-4-4-6-6-6-6-7-7-7-7-6-6-6-6-4-4-4-4-6-6-6-6-|
------------------------------------------------------------------|
------------------------------------------------------------------|


  T T T T T T T T T T T T T T T T T T T T T T T T T T T T T T T T  
------------------------------------------------------------------|
------------------------------------------------------------------|
------------------------------------------------------------------|
----------5-5-5-5-7-7-7-7---------5-5-5-5-7-7-7-7-8-8-8-8---------|
--0-0-0-0-----------------0-0-0-0-------------------------6-6-6-6-|
------------------------------------------------------------------|


  T T T T T T T T T T T T T T T T E  E  E  S S  
-----------------------------------------------|
-----------------------------------------------|
--6-6-6-6--------------------------------------|
--4-4-4-4-5-5-5-5-5-5-5-5-5-5-5-5-6--5--3--5-3-|
----------3-3-3-3-3-3-3-3-3-3-3-3-4--3--1--3-1-|
-----------------------------------------------|


  E  T T T T T T T T T T T T T T T T T T T T T T T T T T T T  
-------------------------------------------------------------|
-------------------------------------------------------------|
-------------------------------------------------------------|
--2--5-5-5-5-7-7-7-7---------5-5-5-5-7-7-7-7-8-8-8-8---------|
--0------------------0-0-0-0-------------------------6-6-6-6-|
-------------------------------------------------------------|


  T T T T T T T T T T T T T T T T T T T T T T T T T T T T T T T T  
------------------------------------------------------------------|
------------------------------------------------------------------|
--6-6-6-6-5-5-5-5-6-6-6-6-8-8-8-8-9-9-9-9-8-8-8-8-6-6-6-6-8-8-8-8-|
--4-4-4-4-3-3-3-3-4-4-4-4-6-6-6-6-7-7-7-7-6-6-6-6-4-4-4-4-6-6-6-6-|
------------------------------------------------------------------|
------------------------------------------------------------------|


  T T T T T T T T T T T T T T T T T T T T T T T T T T T T T T T T  
------------------------------------------------------------------|
------------------------------------------------------------------|
------------------------------------------------------------------|
----------5-5-5-5-7-7-7-7---------5-5-5-5-7-7-7-7-8-8-8-8---------|
--0-0-0-0-----------------0-0-0-0-------------------------6-6-6-6-|
------------------------------------------------------------------|


  T T T T T T T T T T T T T T T T E  E  E  S S  
-----------------------------------------------|
-----------------------------------------------|
--6-6-6-6--------------------------------------|
--4-4-4-4-5-5-5-5-5-5-5-5-5-5-5-5-6--5--3--5-3-|
----------3-3-3-3-3-3-3-3-3-3-3-3-4--3--1--3-1-|
-----------------------------------------------|


  E  T T T T T T T T T T T T T T T T T T T T T T T T T T T T  
-------------------------------------------------------------|
-------------------------------------------------------------|
-------------------------------------------------------------|
--2--5-5-5-5-7-7-7-7---------5-5-5-5-7-7-7-7-8-8-8-8---------|
--0------------------0-0-0-0-------------------------6-6-6-6-|
-------------------------------------------------------------|


  T T T T T T T T T T T T T T T T T T T T T T T T T T T T T T T T  
------------------------------------------------------------------|
------------------------------------------------------------------|
--6-6-6-6-5-5-5-5-6-6-6-6-8-8-8-8-9-9-9-9-8-8-8-8-6-6-6-6-8-8-8-8-|
--4-4-4-4-3-3-3-3-4-4-4-4-6-6-6-6-7-7-7-7-6-6-6-6-4-4-4-4-6-6-6-6-|
------------------------------------------------------------------|
------------------------------------------------------------------|


  PM       PM       PM       PM          PM           
  E  E  E  E  E  E  E  E     E  E  E  E  E  E  E  E   
--------------------------|--------------------------|
--------------------------|--------------------------|
--------------------------|--------------------------|
-----5--6-----5--6-----5--|-----5--6--5-----5--6--8--|
-----3--4-----3--4-----3--|-----3--4--3-----3--4--6--|
--1--------1--------1-----|--1-----------1-----------|


  PM       PM       PM       PM                       
  E  E  E  E  E  E  E  E     E  E  E  E  E  E  E  E   
--------------------------|--------------------------|
--------------------------|--------------------------|
--------------------------|--------------------------|
-----5--6-----5--6-----5--|-----5--6--5-----6--5-----|
-----3--4-----3--4-----3--|-----3--4--3--6--4--3--2--|
--1--------1--------1-----|--1-----------4--------0--|


  PM       PM       PM       PM          PM           
  E  E  E  E  E  E  E  E     E  E  E  E  E  E  E  E   
--------------------------|--------------------------|
--------------------------|--------------------------|
--------------------------|-----------------------3--|
-----5--6-----5--6-----5--|-----5--6--5-----5--6--1--|
-----3--4-----3--4-----3--|-----3--4--3-----3--4-----|
--1--------1--------1-----|--1-----------1-----------|


  PM       PM       PM       PM                       
  E  E  E  E  E  E  E  E     E  E  E  E  E  E  E  E   
--------------------------|--------------------------|
--------------------------|--------------------------|
--------------------------|--------------------------|
-----5--6-----5--6-----5--|-----5--6--5-----6--5-----|
-----3--4-----3--4-----3--|-----3--4--3--6--4--3--2--|
--1--------1--------1-----|--1-----------4--------0--|


          PM PM PM PM PM PM PM PM PM PM PM PM PM PM PM PM PM  
  E  S E  T  T  S  T  T  S  T  T  S  T  T  S  T  T  S  T  T   
-------------------------------------------------------------|
-------------------------------------------------------------|
-------------------------------------------------------------|
-------------------------------------------------------------|
--3----2-----------------------------------------------------|
--1----0--0--0--0--0--0--0--0--0--0--0--0--0--0--0--0--0--0--|


          PM PM PM PM PM PM PM PM PM PM PM PM PM  
  E  S E  T  T  S  T  T  S  S  S  S  S  S  S  S   
-------------------------------------------------|
-------------------------------------------------|
-------------------------------------------------|
-------------------------------------------------|
--3----2-----------------------------------------|
--1----0--0--0--0--0--0--3--3--0--5--4--4--0--1--|


          PM PM PM PM PM PM PM PM PM PM PM PM PM PM PM PM PM  
  E  S E  T  T  S  T  T  S  T  T  S  T  T  S  T  T  S  T  T   
-------------------------------------------------------------|
-------------------------------------------------------------|
-------------------------------------------------------------|
-------------------------------------------------------------|
--3----2-----------------------------------------------------|
--1----0--0--0--0--0--0--0--0--0--0--0--0--0--0--0--0--0--0--|


          PM PM PM PM PM PM PM PM PM PM PM PM PM  
  E  S E  T  T  S  T  T  S  S  S  S  S  S  S  S   
-------------------------------------------------|
-------------------------------------------------|
-------------------------------------------------|
-------------------------------------------------|
--3----2-----------------------------------------|
--1----0--0--0--0--0--0--1--2--1--3--3--6--3--5--|


          PM PM PM PM PM PM PM PM PM PM PM PM PM PM PM PM PM  
  E  S E  T  T  S  T  T  S  T  T  S  T  T  S  T  T  S  T  T   
-------------------------------------------------------------|
-------------------------------------------------------------|
-------------------------------------------------------------|
-------------------------------------------------------------|
--3----2-----------------------------------------------------|
--1----0--0--0--0--0--0--0--0--0--0--0--0--0--0--0--0--0--0--|


          PM PM PM PM PM PM PM PM PM PM PM PM PM  
  E  S E  T  T  S  T  T  S  S  S  S  S  S  S  S   
-------------------------------------------------|
-------------------------------------------------|
-------------------------------------------------|
-------------------------------------------------|
--3----2-----------------------------------------|
--1----0--0--0--0--0--0--3--3--0--5--4--4--0--1--|


          PM PM PM PM PM PM PM PM PM PM PM PM PM PM PM PM PM  
  E  S E  T  T  S  T  T  S  T  T  S  T  T  S  T  T  S  T  T   
-------------------------------------------------------------|
-------------------------------------------------------------|
-------------------------------------------------------------|
-------------------------------------------------------------|
--3----2-----------------------------------------------------|
--1----0--0--0--0--0--0--0--0--0--0--0--0--0--0--0--0--0--0--|


          PM PM PM PM PM PM PM PM PM PM PM PM PM                          
  E  S E  T  T  S  T  T  S  S  S  S  S  S  S  S     E  E   Q    H         
-------------------------------------------------|-----------------------|
-------------------------------------------------|-----------------------|
-------------------------------------------------|-----------------------|
-------------------------------------------------|--7--L\----------------|
--3----2-----------------------------------------|--7--L\----------------|
--1----0--0--0--0--0--0--1--2--1--3--3--6--3--5--|--5--L\----------------|


-----------|-----------|
-----------|-----------|
-----------|-----------|
-----------|-----------|
-----------|-----------|
-----------|-----------|


  T T T T T T T T T T T T T T T T T T T T T T T T T T T T T T T T  
------------------------------------------------------------------|
------------------------------------------------------------------|
--6-6-6-6-5-5-5-5-6-6-6-6-8-8-8-8-9-9-9-9-8-8-8-8-6-6-6-6-8-8-8-8-|
--4-4-4-4-3-3-3-3-4-4-4-4-6-6-6-6-7-7-7-7-6-6-6-6-4-4-4-4-6-6-6-6-|
------------------------------------------------------------------|
------------------------------------------------------------------|


  T T T T T T T T T T T T T T T T T T T T T T T T T T T T T T T T  
------------------------------------------------------------------|
------------------------------------------------------------------|
------------------------------------------------------------------|
----------5-5-5-5-7-7-7-7---------5-5-5-5-7-7-7-7-8-8-8-8---------|
--0-0-0-0-----------------0-0-0-0-------------------------6-6-6-6-|
------------------------------------------------------------------|


  T T T T T T T T T T T T T T T T E  E  E  S S  
-----------------------------------------------|
-----------------------------------------------|
--6-6-6-6--------------------------------------|
--4-4-4-4-5-5-5-5-5-5-5-5-5-5-5-5-6--5--3--5-3-|
----------3-3-3-3-3-3-3-3-3-3-3-3-4--3--1--3-1-|
-----------------------------------------------|


  E  T T T T T T T T T T T T T T T T T T T T T T T T T T T T  
-------------------------------------------------------------|
-------------------------------------------------------------|
-------------------------------------------------------------|
--2--5-5-5-5-7-7-7-7---------5-5-5-5-7-7-7-7-8-8-8-8---------|
--0------------------0-0-0-0-------------------------6-6-6-6-|
-------------------------------------------------------------|


  T T T T T T T T T T T T T T T T T T T T T T T T T T T T T T T T  
------------------------------------------------------------------|
------------------------------------------------------------------|
--6-6-6-6-5-5-5-5-6-6-6-6-8-8-8-8-9-9-9-9-8-8-8-8-6-6-6-6-8-8-8-8-|
--4-4-4-4-3-3-3-3-4-4-4-4-6-6-6-6-7-7-7-7-6-6-6-6-4-4-4-4-6-6-6-6-|
------------------------------------------------------------------|
------------------------------------------------------------------|


  T T T T T T T T T T T T T T T T T T T T T T T T T T T T T T T T  
------------------------------------------------------------------|
------------------------------------------------------------------|
------------------------------------------------------------------|
----------5-5-5-5-7-7-7-7---------5-5-5-5-7-7-7-7-8-8-8-8---------|
--0-0-0-0-----------------0-0-0-0-------------------------6-6-6-6-|
------------------------------------------------------------------|


  T T T T T T T T T T T T T T T T E  E  E  S S  
-----------------------------------------------|
-----------------------------------------------|
--6-6-6-6--------------------------------------|
--4-4-4-4-5-5-5-5-5-5-5-5-5-5-5-5-6--5--3--5-3-|
----------3-3-3-3-3-3-3-3-3-3-3-3-4--3--1--3-1-|
-----------------------------------------------|


  E  T T T T T T T T T T T T T T T T T T T T T T T T T T T T  
-------------------------------------------------------------|
-------------------------------------------------------------|
-------------------------------------------------------------|
--2--5-5-5-5-7-7-7-7---------5-5-5-5-7-7-7-7-8-8-8-8---------|
--0------------------0-0-0-0-------------------------6-6-6-6-|
-------------------------------------------------------------|


  T T T T T T T T T T T T T T T T T T T T T T T T T T T T T T T T  
------------------------------------------------------------------|
------------------------------------------------------------------|
--6-6-6-6-5-5-5-5-6-6-6-6-8-8-8-8-9-9-9-9-8-8-8-8-6-6-6-6-8-8-8-8-|
--4-4-4-4-3-3-3-3-4-4-4-4-6-6-6-6-7-7-7-7-6-6-6-6-4-4-4-4-6-6-6-6-|
------------------------------------------------------------------|
------------------------------------------------------------------|


  PM       PM       PM       PM          PM           
  E  E  E  E  E  E  E  E     E  E  E  E  E  E  E  E   
--------------------------|--------------------------|
--------------------------|--------------------------|
--------------------------|-----------------------3--|
-----5--6-----5--6-----5--|-----5--6--5-----5--6--1--|
-----3--4-----3--4-----3--|-----3--4--3-----3--4-----|
--1--------1--------1-----|--1-----------1-----------|


  PM       PM       PM       PM                       
  E  E  E  E  E  E  E  E     E  E  E  E  E  E  E  E   
--------------------------|--------------------------|
--------------------------|--------------------------|
--------------------------|--------------------------|
-----5--6-----5--6-----5--|-----5--6--5-----6--5-----|
-----3--4-----3--4-----3--|-----3--4--3--6--4--3--2--|
--1--------1--------1-----|--1-----------4--------0--|


  PM       PM       PM       PM          PM           
  E  E  E  E  E  E  E  E     E  E  E  E  E  E  E  E   
--------------------------|--------------------------|
--------------------------|--------------------------|
--------------------------|-----------------------3--|
-----5--6-----5--6-----5--|-----5--6--5-----5--6--1--|
-----3--4-----3--4-----3--|-----3--4--3-----3--4-----|
--1--------1--------1-----|--1-----------1-----------|


  PM       PM       PM       PM                       
  E  E  E  E  E  E  E  E     E  E  E  E  E  E  E  E   
--------------------------|--------------------------|
--------------------------|--------------------------|
--------------------------|--------------------------|
-----5--6-----5--6-----5--|-----5--6--5-----6--5-----|
-----3--4-----3--4-----3--|-----3--4--3--6--4--3--2--|
--1--------1--------1-----|--1-----------4--------0--|


  E  E   E  E  E   E  E  E      E  E   E  E    E  E   E  E   
----------------------------|-------------------------------|
----------------------------|-------------------------------|
----------------------------|----------------------------7--|
-----9--10-----9--10-----9--|------9--10--9-------9--10-----|
--7---------7---------7-----|--/8------------/10------------|
----------------------------|-------------------------------|


                                                           W   
  E  E   E  E  E   E  E  E      E  E   E  E    E  E   E    E   
----------------------------|---------------------------------|
----------------------------|---------------------------------|
----------------------------|----------------------------<>9--|
-----9--10-----9--10-----9--|------9--10--9-------9--10-------|
--7---------7---------7-----|--/8------------/10--------------|
----------------------------|---------------------------------|


  E  E   E  E  E   E  E  E      E  E   E  E    E  E   E  E   
----------------------------|-------------------------------|
----------------------------|-------------------------------|
----------------------------|----------------------------7--|
-----9--10-----9--10-----9--|------9--10--9-------9--10-----|
--7---------7---------7-----|--/8------------/10------------|
----------------------------|-------------------------------|


                                                           W   
  E  E   E  E  E   E  E  E      E  E   E  E    E  E   E    E   
----------------------------|---------------------------------|
----------------------------|---------------------------------|
----------------------------|----------------------------<>9--|
-----9--10-----9--10-----9--|------9--10--9-------9--10-------|
--7---------7---------7-----|--/8------------/10--------------|
----------------------------|---------------------------------|


  T T T T T T T T  T  T  T  T T T T T T T T T  T  T  T  T T T T T T T T T  
--------------------------------------------------------------------------|
--------------------------------------------------------------------------|
--------------------------------------------------------------------------|
----------9-9-9-9-10-10-10-10---------9-9-9-9-10-10-10-10---------9-9-9-9-|
--7-7-7-7---------------------7-7-7-7---------------------7-7-7-7---------|
--------------------------------------------------------------------------|


  T T T T T T T T  T  T  T  T T T T T  T  T  T  T T T T T  T  T  T  T T T T T  
------------------------------------------------------------------------------|
------------------------------------------------------------------------------|
----------------------------------------------------------------------7-7-7-7-|
----------9-9-9-9-10-10-10-10-9-9-9-9-------------9-9-9-9-10-10-10-10---------|
--8-8-8-8-----------------------------10-10-10-10-----------------------------|
------------------------------------------------------------------------------|


  T T T T T T T T  T  T  T  T T T T T T T T T  T  T  T  T T T T T T T T T  
--------------------------------------------------------------------------|
--------------------------------------------------------------------------|
--------------------------------------------------------------------------|
----------9-9-9-9-10-10-10-10---------9-9-9-9-10-10-10-10---------9-9-9-9-|
--7-7-7-7---------------------7-7-7-7---------------------7-7-7-7---------|
--------------------------------------------------------------------------|


  T T T T T T T T  T  T  T  T T T T T  T  T  T  T T T T T  T  T  T  T T T T T  
------------------------------------------------------------------------------|
------------------------------------------------------------------------------|
----------------------------------------------------------------------9-9-9-9-|
----------9-9-9-9-10-10-10-10-9-9-9-9-------------9-9-9-9-10-10-10-10---------|
--8-8-8-8-----------------------------10-10-10-10-----------------------------|
------------------------------------------------------------------------------|


  T T T T T T T T  T  T  T  T T T T T T T T T  T  T  T  T T T T T T T T T  
--------------------------------------------------------------------------|
--------------------------------------------------------------------------|
--------------------------------------------------------------------------|
----------9-9-9-9-10-10-10-10---------9-9-9-9-10-10-10-10---------9-9-9-9-|
--7-7-7-7---------------------7-7-7-7---------------------7-7-7-7---------|
--------------------------------------------------------------------------|


  T T T T T T T T  T  T  T  T T T T T  T  T  T  T T T T T  T  T  T  T T T T T  
------------------------------------------------------------------------------|
------------------------------------------------------------------------------|
----------------------------------------------------------------------7-7-7-7-|
----------9-9-9-9-10-10-10-10-9-9-9-9-------------9-9-9-9-10-10-10-10---------|
--8-8-8-8-----------------------------10-10-10-10-----------------------------|
------------------------------------------------------------------------------|


  T T T T T T T T  T  T  T  T T T T T T T T T  T  T  T  T T T T T T T T T  
--------------------------------------------------------------------------|
--------------------------------------------------------------------------|
--------------------------------------------------------------------------|
----------9-9-9-9-10-10-10-10---------9-9-9-9-10-10-10-10---------9-9-9-9-|
--7-7-7-7---------------------7-7-7-7---------------------7-7-7-7---------|
--------------------------------------------------------------------------|


  T T T T T T T T  T  T  T  T T T T T S E  S E  E   
---------------------------------------------------|
---------------------------------------------------|
---------------------------------------------------|
----------9-9-9-9-10-10-10-10-9-9-9-9-7-6----------|
--8-8-8-8-----------------------------5-4--6-5--4--|
-------------------------------------------4-3--2--|


  E  E  E  S S E  E  E  S S    E  E  E  E  Q    E  E   
----------------------------|-------------------------|
----------------------------|-------------------------|
----------------------------|-------------------------|
--2--2--2--4-5-2--2--2--4-5-|--3--3--3--5--7----7--5--|
--0--0--0--2-3-0--0--0--2-3-|--1--1--1--3--5----5--5--|
----------------------------|-------------------------|


  E  E  E  S S E  E  E  S S    E  E  E  E  E  E  E  E   
----------------------------|--------------------------|
----------------------------|--------------------------|
----------------------------|--------------------------|
--2--2--2--4-5-2--2--2--4-5-|--7--5--8--7--9--8--------|
--0--0--0--2-3-0--0--0--2-3-|--5--3--6--5--7--6--7-----|
----------------------------|--------------------5-----|


  E  E  E  S S E  E  E  S S    E  E  E  E  Q    E  E   
----------------------------|-------------------------|
----------------------------|-------------------------|
----------------------------|-------------------------|
--2--2--2--4-5-2--2--2--4-5-|--3--3--3--5--7----7--5--|
--0--0--0--2-3-0--0--0--2-3-|--1--1--1--3--5----5--5--|
----------------------------|-------------------------|


  E  E  E  S S E  E  E  S S    E  E  E  E  E  E  E  E   
----------------------------|--------------------------|
----------------------------|--------------------------|
----------------------------|--------------------------|
--2--2--2--4-5-2--2--2--4-5-|--7--5--8--7--9--8--------|
--0--0--0--2-3-0--0--0--2-3-|--5--3--6--5--7--6--7-----|
----------------------------|--------------------5-----|


  E  E  E  S S E  E  E  S S    E  E  E  E  Q    E  E   
----------------------------|-------------------------|
----------------------------|-------------------------|
----------------------------|-------------------------|
--2--2--2--4-5-2--2--2--4-5-|--3--3--3--5--7----7--5--|
--0--0--0--2-3-0--0--0--2-3-|--1--1--1--3--5----5--5--|
----------------------------|-------------------------|


  E  E  E  S S E  E  E  S S    E  E  E  E  E  E  E  E   
----------------------------|--------------------------|
----------------------------|--------------------------|
----------------------------|--------------------------|
--2--2--2--4-5-2--2--2--4-5-|--7--5--8--7--9--8--------|
--0--0--0--2-3-0--0--0--2-3-|--5--3--6--5--7--6--7-----|
----------------------------|--------------------5-----|


  E  E  E  S S E  E  E  S S    E  E  E  E  Q    E  E   
----------------------------|-------------------------|
----------------------------|-------------------------|
----------------------------|-------------------------|
--2--2--2--4-5-2--2--2--4-5-|--3--3--3--5--7----7--5--|
--0--0--0--2-3-0--0--0--2-3-|--1--1--1--3--5----5--5--|
----------------------------|-------------------------|


  E  E  E  S S E  E  E  S S    E  E  E  E  E  E  E  E   
----------------------------|--------------------------|
----------------------------|--------------------------|
----------------------------|--------------------------|
--2--2--2--4-5-2--2--2--4-5-|--7--5--8--7--9--8--------|
--0--0--0--2-3-0--0--0--2-3-|--5--3--6--5--7--6--7-----|
----------------------------|--------------------5-----|


          PM PM PM PM PM PM PM PM PM PM PM PM PM PM PM PM PM  
  E  S E  T  T  S  T  T  S  T  T  S  T  T  S  T  T  S  T  T   
-------------------------------------------------------------|
-------------------------------------------------------------|
-------------------------------------------------------------|
-------------------------------------------------------------|
--3----2-----------------------------------------------------|
--1----0--0--0--0--0--0--0--0--0--0--0--0--0--0--0--0--0--0--|


          PM PM PM PM PM PM PM PM PM PM PM PM PM  
  E  S E  T  T  S  T  T  S  S  S  S  S  S  S  S   
-------------------------------------------------|
-------------------------------------------------|
-------------------------------------------------|
-------------------------------------------------|
--3----2-----------------------------------------|
--1----0--0--0--0--0--0--3--3--0--5--4--4--0--1--|


          PM PM PM PM PM PM PM PM PM PM PM PM PM PM PM PM PM  
  E  S E  T  T  S  T  T  S  T  T  S  T  T  S  T  T  S  T  T   
-------------------------------------------------------------|
-------------------------------------------------------------|
-------------------------------------------------------------|
-------------------------------------------------------------|
--3----2-----------------------------------------------------|
--1----0--0--0--0--0--0--0--0--0--0--0--0--0--0--0--0--0--0--|


          PM PM PM PM PM PM PM PM PM PM PM PM PM  
  E  S E  T  T  S  T  T  S  S  S  S  S  S  S  S   
-------------------------------------------------|
-------------------------------------------------|
-------------------------------------------------|
-------------------------------------------------|
--3----2-----------------------------------------|
--1----0--0--0--0--0--0--1--2--1--3--3--6--3--5--|


          PM PM PM PM PM PM PM PM PM PM PM PM PM PM PM PM PM  
  E  S E  T  T  S  T  T  S  T  T  S  T  T  S  T  T  S  T  T   
-------------------------------------------------------------|
-------------------------------------------------------------|
-------------------------------------------------------------|
-------------------------------------------------------------|
--3----2-----------------------------------------------------|
--1----0--0--0--0--0--0--0--0--0--0--0--0--0--0--0--0--0--0--|


          PM PM PM PM PM PM PM PM PM PM PM PM PM  
  E  S E  T  T  S  T  T  S  S  S  S  S  S  S  S   
-------------------------------------------------|
-------------------------------------------------|
-------------------------------------------------|
-------------------------------------------------|
--3----2-----------------------------------------|
--1----0--0--0--0--0--0--3--3--0--5--4--4--0--1--|


          PM PM PM PM PM PM PM PM PM PM PM PM PM PM PM PM PM  
  E  S E  T  T  S  T  T  S  T  T  S  T  T  S  T  T  S  T  T   
-------------------------------------------------------------|
-------------------------------------------------------------|
-------------------------------------------------------------|
-------------------------------------------------------------|
--3----2-----------------------------------------------------|
--1----0--0--0--0--0--0--0--0--0--0--0--0--0--0--0--0--0--0--|


          PM PM PM PM PM PM PM PM PM PM PM PM PM                               
  E  S E  T  T  S  T  T  S  S  S  S  S  S  S  S     E  E  E  S S E  E  E  S S  
-------------------------------------------------|----------------------------|
-------------------------------------------------|----------------------------|
-------------------------------------------------|----------------------------|
-------------------------------------------------|--2--2--2--4-5-2--2--2--4-5-|
--3----2-----------------------------------------|--0--0--0--2-3-0--0--0--2-3-|
--1----0--0--0--0--0--0--1--2--1--3--3--6--3--5--|----------------------------|


  E  E  E  E  Q    E  E     E  E  E  S S E  E  E  S S  
-------------------------|----------------------------|
-------------------------|----------------------------|
-------------------------|----------------------------|
--3--3--3--5--7----7--5--|--2--2--2--4-5-2--2--2--4-5-|
--1--1--1--3--5----5--5--|--0--0--0--2-3-0--0--0--2-3-|
-------------------------|----------------------------|


  E  E  E  E  E  E  E  E   
--------------------------|
--------------------------|
--------------------------|
--7--5--8--7--9--8--------|
--5--3--6--5--7--6--7-----|
--------------------5-----|


  T T T T T T T T T T T T T T T T T T T T T T T T T T T T T T T T  
------------------------------------------------------------------|
------------------------------------------------------------------|
------------------------------------------------------------------|
--2-2-2-2-2-2-2-2-2-2-2-2-4-4-5-5-2-2-2-2-2-2-2-2-2-2-2-2-4-4-5-5-|
--0-0-0-0-0-0-0-0-0-0-0-0-2-2-3-3-0-0-0-0-0-0-0-0-0-0-0-0-2-2-3-3-|
------------------------------------------------------------------|


  T T T T T T T T T T T T T T T T T T T T T T T T T T T T T T T T  
------------------------------------------------------------------|
------------------------------------------------------------------|
------------------------------------------------------------------|
--3-3-3-3-3-3-3-3-3-3-3-3-5-5-5-5-7-7-7-7-7-7-7-7-7-7-7-7-5-5-5-5-|
--1-1-1-1-1-1-1-1-1-1-1-1-3-3-3-3-5-5-5-5-5-5-5-5-5-5-5-5-5-5-5-5-|
------------------------------------------------------------------|


  T T T T T T T T T T T T T T T T T T T T T T T T T T T T T T T T  
------------------------------------------------------------------|
------------------------------------------------------------------|
------------------------------------------------------------------|
--2-2-2-2-2-2-2-2-2-2-2-2-4-4-5-5-2-2-2-2-2-2-2-2-2-2-2-2-4-4-5-5-|
--0-0-0-0-0-0-0-0-0-0-0-0-2-2-3-3-0-0-0-0-0-0-0-0-0-0-0-0-2-2-3-3-|
------------------------------------------------------------------|


                                                     PM PM  
  T T T T T T T T T T T T T T T T T T T T T T T T E  S  S   
-----------------------------------------------------------|
-----------------------------------------------------------|
-----------------------------------------------------------|
--7-7-7-7-5-5-5-5-8-8-8-8-7-7-7-7-9-9-9-9-8-8-8-8----------|
--5-5-5-5-3-3-3-3-6-6-6-6-5-5-5-5-7-7-7-7-6-6-6-6-7--------|
--------------------------------------------------5--5--5--|


                       PM PM                          
  E  E  E  E  E  E  E  S  S     H        Q    Q       
-----------------------------|----------------------||
-----------------------------|----------------------||
-----------------------------|----------------------||
--7--5--8--7--9--8-----------|----------------------||
--5--3--6--5--7--6--7--------|--7--------7----L\----||
--------------------5--5--5--|--5--------5----L\----||
                              Tonight In Flames                                 




          PM PM                                            PM PM           
     Q    E  E  H           Q    Q    E  Q      E     Q    E  E  H         
D||----------------------|-------------------------|----------------------|
A||----------------------|-------------------------|----------------------|
F||----------------------|-------------------------|----------------------|
C||--2-------------------|--3----3-----------------|--2-------------------|
G||--2-------------------|--3----3-----------------|--2-------------------|
D||--0----0--0-----------|--1----1----1--3br----1--|--0----0--0-----------|


                                PM PM                                     
  Q    Q    E  E  E  E     Q    E  E  H           Q    Q    E  Q      E   
------------------------|----------------------|-------------------------|
------------------------|----------------------|-------------------------|
------------------------|----------------------|-------------------------|
--3----3----------------|--2-------------------|--3----3-----------------|
--3----3----3-----------|--2-------------------|--3----3-----------------|
--1----1-------4--1--3--|--0----0--0-----------|--1----1----1--3br----1--|


       PM PM                                           PM PM           
  Q    E  E  H           Q    Q    E  E  E  E     Q    E  E  H         
----------------------|------------------------|----------------------|
----------------------|------------------------|----------------------|
----------------------|------------------------|----------------------|
--2-------------------|--3----3----------------|--2-------------------|
--2-------------------|--3----3----3-----------|--2-------------------|
--0----0--0-----------|--1----1-------4--1--3--|--0----0--0-----------|


                                 PM PM                                    
  Q    Q    E  Q      E     Q    E  E  H           Q    Q    E  E  E  E   
-------------------------|----------------------|------------------------|
-------------------------|----------------------|------------------------|
-------------------------|----------------------|------------------------|
--3----3-----------------|--2-------------------|--3----3----------------|
--3----3-----------------|--2-------------------|--3----3----3-----------|
--1----1----1--3br----1--|--0----0--0-----------|--1----1-------4--1--3--|


       PM PM                                            PM PM           
  Q    E  E  H           Q    Q    E  Q      E     Q    E  E  H         
----------------------|-------------------------|----------------------|
----------------------|-------------------------|----------------------|
----------------------|-------------------------|----------------------|
--2-------------------|--3----3-----------------|--2-------------------|
--2-------------------|--3----3-----------------|--2-------------------|
--0----0--0-----------|--1----1----1--3br----1--|--0----0--0-----------|


  Q    Q    E  E  E  E     Q    E  E  H            E  E  E  E  E  E  E  E   
------------------------|-----------------------|--------------------------|
------------------------|-----------------------|--------------------------|
------------------------|-------6--4--6~--------|-----7--6--7-----7--6--7--|
--3----3----------------|--4--------------------|--------------------------|
--3----3----3-----------|-----------------------|--8-----------8-----------|
--1----1-------4--1--3--|-----------------------|--------------------------|


  Q    E  E  H            E  E  E  Q     E  Q        Q    E  E  H          
-----------------------|--------------------------|-----------------------|
-----------------------|--------------------------|-----------------------|
-------6--4--6~--------|-----7--6--7~----6--4~----|-------6--4--6~--------|
--4--------------------|--------------------------|--4--------------------|
-----------------------|--8-----------------------|-----------------------|
-----------------------|--------------------------|-----------------------|


  E  E  E  E  E  E  E  E     Q    E  E  H            E  E  E  E  E  E  E  E   
--------------------------|-----------------------|--------------------------|
--------------------------|-----------------------|-----------------6--5--6--|
-----7--6--7-----7--6--7--|-------6--4--6~--------|-----7--6--7--6-----------|
--------------------------|--4--------------------|--------------------------|
--8-----------8-----------|-----------------------|--8-----------------------|
--------------------------|-----------------------|--------------------------|


                              PM         PM          
  W                    E   E  E  E    E  E   E   E   
--------------------|-------------------------------|
--5~----------------|-------------------------------|
--------------------|-------------------------------|
--------------------|--9s--7-----9s--10-----10s--9--|
--------------------|--7s--5-----7s---8------8s--7--|
--------------------|---------0----------0----------|


         PM PM PM PM PM PM            PM          PM          
  E   E  E  E  E  E  E  E      E   E  E   E    E  E   E   E   
---------------------------|---------------------------------|
---------------------------|---------------------------------|
---------------------------|---------------------------------|
--9s--7--------------------|--10s--9-----10s--12-----10s--9--|
--7s--5--------------------|---8s--7------8s--10------8s--7--|
---------0--0--0--0--0--0--|----------0-----------0----------|


         PM PM PM PM PM PM           PM         PM          
  E   E  E  E  E  E  E  E     E   E  E  E    E  E   E   E   
---------------------------|-------------------------------|
---------------------------|-------------------------------|
---------------------------|-------------------------------|
--9s--7--------------------|--9s--7-----9s--10-----10s--9--|
--7s--5--------------------|--7s--5-----7s---8------8s--7--|
---------0--0--0--0--0--0--|---------0----------0----------|


         PM PM PM PM PM PM            PM                     
  E   E  E  E  E  E  E  E      E   E  E   E  E   E   E   E   
---------------------------|--------------------------------|
---------------------------|--------------------------------|
---------------------------|--------------------------------|
--9s--7--------------------|-------------12--L--12--12--11--|
--7s--5--------------------|--10s--9-----10--L--10--10---9--|
---------0--0--0--0--0--0--|---8s--7--0---------------------|


         PM PM PM PM PM PM           PM         PM          
  E   E  E  E  E  E  E  E     E   E  E  E    E  E   E   E   
---------------------------|-------------------------------|
---------------------------|-------------------------------|
---------------------------|-------------------------------|
--9s--7--------------------|--9s--7-----9s--10-----10s--9--|
--7s--5--------------------|--7s--5-----7s---8------8s--7--|
---------0--0--0--0--0--0--|---------0----------0----------|


         PM PM PM PM PM PM            PM          PM          
  E   E  E  E  E  E  E  E      E   E  E   E    E  E   E   E   
---------------------------|---------------------------------|
---------------------------|---------------------------------|
---------------------------|---------------------------------|
--9s--7--------------------|--10s--9-----10s--12-----10s--9--|
--7s--5--------------------|---8s--7------8s--10------8s--7--|
---------0--0--0--0--0--0--|----------0-----------0----------|


         PM PM PM PM PM PM           PM         PM          
  E   E  E  E  E  E  E  E     E   E  E  E    E  E   E   E   
---------------------------|-------------------------------|
---------------------------|-------------------------------|
---------------------------|-------------------------------|
--9s--7--------------------|--9s--7-----9s--10-----10s--9--|
--7s--5--------------------|--7s--5-----7s---8------8s--7--|
---------0--0--0--0--0--0--|---------0----------0----------|


         PM PM PM PM PM PM            PM                     
  E   E  E  E  E  E  E  E      E   E  E   E  E   E   E   E   
---------------------------|--------------------------------|
---------------------------|--------------------------------|
---------------------------|--------------------------------|
--9s--7--------------------|-------------12--L--12--12--11--|
--7s--5--------------------|--10s--9-----10--L--10--10---9--|
---------0--0--0--0--0--0--|---8s--7--0---------------------|


  H.            E  E     H.            E  E     W                  
----------------------|----------------------|--------------------|
----------------------|----------------------|--------------------|
----------------------|----------------------|--------------------|
----------------------|--7~------------8--7--|--5~----------------|
--5~------------5--8--|----------------------|--------------------|
----------------------|----------------------|--------------------|


              |--3--|                                                          
  E  E  E  E  S  S  S  E  E  E     H.            E  E     H.            E  E   
--------------------------------|----------------------|----------------------|
--------------------------------|----------------------|----------------------|
--5-----------------------------|----------------------|----------------------|
-----8--7--8--7h-8p-7s-5--7--5--|----------------------|--7~------------8--7--|
--------------------------------|--5~------------5--8--|----------------------|
--------------------------------|----------------------|----------------------|


                                   |--3--|                                   
  W                    E  E  E  E  S  S  S  E  E  E     H.            E  E   
--------------------|--------------------------------|----------------------|
--------------------|--------------------------------|----------------------|
--------------------|--5-----------------------------|----------------------|
--5~----------------|-----8--7--8--7h-8p-7s-5--7--5--|----------------------|
--------------------|--------------------------------|--5~------------5--8--|
--------------------|--------------------------------|----------------------|


                                                          |--3--|            
  H.            E  E     W                    E  E  E  E  S  S  S  E  E  E   
----------------------|--------------------|--------------------------------|
----------------------|--------------------|--------------------------------|
----------------------|--------------------|--5-----------------------------|
--7~------------8--7--|--5~----------------|-----8--7--8--7h-8p-7s-5--7--5--|
----------------------|--------------------|--------------------------------|
----------------------|--------------------|--------------------------------|


  H.            E  E     H.            E  E     H         H          
----------------------|----------------------|----------------------|
----------------------|----------------------|----------------------|
----------------------|----------------------|----------------------|
----------------------|--7~------------8--7--|--5~------------------|
--5~------------5--8--|----------------------|------------8\--------|
----------------------|----------------------|----------------------|


  PM PM PM PM PM PM PM PM PM PM                         
  E  E  S  S  E  E  E  S  S  E     Q    Q    Q    Q     
--------------------------------|----------------------|
--------------------------------|----------------------|
--------------------------------|----------------------|
--------------------------------|-------5----4----5----|
--2--2--2--2--2--2--2--2--2--2--|--7-------------------|
--0--0--0--0--0--0--0--0--0--0--|----------------------|


    Q    Q    E   E  Q       Q    Q    Q    Q       Q     Q    E   E  Q     
--------------------------|----------------------|-------------------------|
--------------------------|----------------------|-------------------------|
--------------------------|----------------------|--4~---------------------|
--5g7----5----4h--5--5----|-------5----4----5----|--------5----4h--5--5----|
--------------------------|--7-------------------|-------------------------|
--------------------------|----------------------|-------------------------|


  Q    Q    Q    Q         Q    Q    E   E  Q       Q    Q    Q    Q     
----------------------|--------------------------|----------------------|
----------------------|--------------------------|----------------------|
----------------------|--------------------------|--7----5----4---------|
-------5----4----5----|--5g7----5----4h--5--5----|-----------------7----|
--7-------------------|--------------------------|----------------------|
----------------------|--------------------------|----------------------|


  Q    Q    S  S  E   Q       Q    Q    Q    Q         Q    Q    E   E  Q     
---------------------------|----------------------|--------------------------|
--5------------------------|----------------------|--------------------------|
-------7-------------------|----------------------|--------------------------|
------------5p-4h-5p--4----|-------5----4----5----|--5g7----5----4h--5--5----|
---------------------------|--7-------------------|--------------------------|
---------------------------|----------------------|--------------------------|


  Q    Q    Q    Q       Q     Q    E   E  Q       Q    Q    Q    Q     
----------------------|-------------------------|----------------------|
----------------------|-------------------------|----------------------|
----------------------|--4~---------------------|----------------------|
-------5----4----5----|--------5----4h--5--5----|-------5----4----5----|
--7-------------------|-------------------------|--7-------------------|
----------------------|-------------------------|----------------------|


    Q    Q    E   E  Q       Q    Q    Q    Q       Q    Q    E  E    Q      
--------------------------|----------------------|--------------------------|
--------------------------|----------------------|--5---------------<>5~----|
--------------------------|--7----5----4---------|-------7----5--4----------|
--5g7----5----4h--5--5----|-----------------7----|--------------------------|
--------------------------|----------------------|--------------------------|
--------------------------|----------------------|--------------------------|


         PM PM PM PM PM PM           PM         PM          
  E   E  E  E  E  E  E  E     E   E  E  E    E  E   E   E   
---------------------------|-------------------------------|
---------------------------|-------------------------------|
---------------------------|-------------------------------|
--9s--7--------------------|--9s--7-----9s--10-----10s--9--|
--7s--5--------------------|--7s--5-----7s---8------8s--7--|
---------0--0--0--0--0--0--|---------0----------0----------|


         PM PM PM PM PM PM            PM          PM          
  E   E  E  E  E  E  E  E      E   E  E   E    E  E   E   E   
---------------------------|---------------------------------|
---------------------------|---------------------------------|
---------------------------|---------------------------------|
--9s--7--------------------|--10s--9-----10s--12-----10s--9--|
--7s--5--------------------|---8s--7------8s--10------8s--7--|
---------0--0--0--0--0--0--|----------0-----------0----------|


         PM PM PM PM PM PM           PM         PM          
  E   E  E  E  E  E  E  E     E   E  E  E    E  E   E   E   
---------------------------|-------------------------------|
---------------------------|-------------------------------|
---------------------------|-------------------------------|
--9s--7--------------------|--9s--7-----9s--10-----10s--9--|
--7s--5--------------------|--7s--5-----7s---8------8s--7--|
---------0--0--0--0--0--0--|---------0----------0----------|


         PM PM PM PM PM PM            PM                     
  E   E  E  E  E  E  E  E      E   E  E   E  E   E   E   E   
---------------------------|--------------------------------|
---------------------------|--------------------------------|
---------------------------|--------------------------------|
--9s--7--------------------|-------------12--L--12--12--11--|
--7s--5--------------------|--10s--9-----10--L--10--10---9--|
---------0--0--0--0--0--0--|---8s--7--0---------------------|


         PM PM PM PM PM PM           PM         PM          
  E   E  E  E  E  E  E  E     E   E  E  E    E  E   E   E   
---------------------------|-------------------------------|
---------------------------|-------------------------------|
---------------------------|-------------------------------|
--9s--7--------------------|--9s--7-----9s--10-----10s--9--|
--7s--5--------------------|--7s--5-----7s---8------8s--7--|
---------0--0--0--0--0--0--|---------0----------0----------|


         PM PM PM PM PM PM            PM          PM          
  E   E  E  E  E  E  E  E      E   E  E   E    E  E   E   E   
---------------------------|---------------------------------|
---------------------------|---------------------------------|
---------------------------|---------------------------------|
--9s--7--------------------|--10s--9-----10s--12-----10s--9--|
--7s--5--------------------|---8s--7------8s--10------8s--7--|
---------0--0--0--0--0--0--|----------0-----------0----------|


         PM PM PM PM PM PM           PM         PM          
  E   E  E  E  E  E  E  E     E   E  E  E    E  E   E   E   
---------------------------|-------------------------------|
---------------------------|-------------------------------|
---------------------------|-------------------------------|
--9s--7--------------------|--9s--7-----9s--10-----10s--9--|
--7s--5--------------------|--7s--5-----7s---8------8s--7--|
---------0--0--0--0--0--0--|---------0----------0----------|


         PM PM PM PM PM PM            PM                     
  E   E  E  E  E  E  E  E      E   E  E   E  E   E   E   E   
---------------------------|--------------------------------|
---------------------------|--------------------------------|
---------------------------|--------------------------------|
--9s--7--------------------|-------------12--L--12--12--11--|
--7s--5--------------------|--10s--9-----10--L--10--10---9--|
---------0--0--0--0--0--0--|---8s--7--0---------------------|


  H.            E  E     H.            E  E     W                  
----------------------|----------------------|--------------------|
----------------------|----------------------|--------------------|
----------------------|----------------------|--------------------|
----------------------|--7~------------8--7--|--5~----------------|
--5~------------5--8--|----------------------|--------------------|
----------------------|----------------------|--------------------|


              |--3--|                                                          
  E  E  E  E  S  S  S  E  E  E     H.            E  E     H.            E  E   
--------------------------------|----------------------|----------------------|
--------------------------------|----------------------|----------------------|
--5-----------------------------|----------------------|----------------------|
-----8--7--8--7h-8p-7s-5--7--5--|----------------------|--7~------------8--7--|
--------------------------------|--5~------------5--8--|----------------------|
--------------------------------|----------------------|----------------------|


                                   |--3--|                                   
  W                    E  E  E  E  S  S  S  E  E  E     H.            E  E   
--------------------|--------------------------------|----------------------|
--------------------|--------------------------------|----------------------|
--------------------|--5-----------------------------|----------------------|
--5~----------------|-----8--7--8--7h-8p-7s-5--7--5--|----------------------|
--------------------|--------------------------------|--5~------------5--8--|
--------------------|--------------------------------|----------------------|


                                                          |--3--|            
  H.            E  E     W                    E  E  E  E  S  S  S  E  E  E   
----------------------|--------------------|--------------------------------|
----------------------|--------------------|--------------------------------|
----------------------|--------------------|--5-----------------------------|
--7~------------8--7--|--5~----------------|-----8--7--8--7h-8p-7s-5--7--5--|
----------------------|--------------------|--------------------------------|
----------------------|--------------------|--------------------------------|


  H.            E  E     H.            E  E     H         H          
----------------------|----------------------|----------------------|
----------------------|----------------------|----------------------|
----------------------|----------------------|----------------------|
----------------------|--7~------------8--7--|--5~------------------|
--5~------------5--8--|----------------------|------------8\--------|
----------------------|----------------------|----------------------|


  PM PM PM PM PM PM PM PM PM PM                         
  E  E  S  S  E  E  E  S  S  E     Q    Q    Q    Q     
--------------------------------|----------------------|
--------------------------------|----------------------|
--------------------------------|----------------------|
--------------------------------|-------5----4----5----|
--2--2--2--2--2--2--2--2--2--2--|--7-------------------|
--0--0--0--0--0--0--0--0--0--0--|----------------------|


    Q    Q    E   E  Q       Q    Q    Q    Q       Q     Q    E   E  Q     
--------------------------|----------------------|-------------------------|
--------------------------|----------------------|-------------------------|
--------------------------|----------------------|--4~---------------------|
--5g7----5----4h--5--5----|-------5----4----5----|--------5----4h--5--5----|
--------------------------|--7-------------------|-------------------------|
--------------------------|----------------------|-------------------------|


  Q    Q    Q    Q         Q    Q    E   E  Q       Q    Q    Q    Q     
----------------------|--------------------------|----------------------|
----------------------|--------------------------|----------------------|
----------------------|--------------------------|--7----5----4---------|
-------5----4----5----|--5g7----5----4h--5--5----|-----------------7----|
--7-------------------|--------------------------|----------------------|
----------------------|--------------------------|----------------------|


  Q    Q    S  S  E   Q       Q    Q    Q    Q         Q    Q    E   E  Q     
---------------------------|----------------------|--------------------------|
--5------------------------|----------------------|--------------------------|
-------7-------------------|----------------------|--------------------------|
------------5p-4h-5p--4----|-------5----4----5----|--5g7----5----4h--5--5----|
---------------------------|--7-------------------|--------------------------|
---------------------------|----------------------|--------------------------|


  Q    Q    Q    Q       Q     Q    E   E  Q       Q    Q    Q    Q     
----------------------|-------------------------|----------------------|
----------------------|-------------------------|----------------------|
----------------------|--4~---------------------|----------------------|
-------5----4----5----|--------5----4h--5--5----|-------5----4----5----|
--7-------------------|-------------------------|--7-------------------|
----------------------|-------------------------|----------------------|


    Q    Q    E   E  Q       Q    Q    Q    Q       Q    Q    E  E  Q      
--------------------------|----------------------|------------------------|
--------------------------|----------------------|--5---------7--5--7~----|
--------------------------|--7----5----4---------|-------7----------------|
--5g7----5----4h--5--5----|-----------------7----|------------------------|
--------------------------|----------------------|------------------------|
--------------------------|----------------------|------------------------|


  Sorry, I couldn't Tab the "Noise" Solo...                  
  Q                                         E  E  H          
------------------------------------------------------------|
------------------------------------------------------------|
--------------------------------------------6--4--6~--------|
--4---------------------------------------------------------|
------------------------------------------------------------|
------------------------------------------------------------|


  E  E  E  E  E  E  E  E     Q    E  E  H            E  E  E  Q     E  Q      
--------------------------|-----------------------|--------------------------|
--------------------------|-----------------------|--------------------------|
-----7--6--7-----7--6--7--|-------6--4--6~--------|-----7--6--7~----6--4~----|
--------------------------|--4--------------------|--------------------------|
--8-----------8-----------|-----------------------|--8-----------------------|
--------------------------|-----------------------|--------------------------|


  Q    E  E  H            E  E  E  E  E  E  E  E     Q    E  E  H          
-----------------------|--------------------------|-----------------------|
-----------------------|--------------------------|-----------------------|
-------6--4--6~--------|-----7--6--7-----7--6--7--|-------6--4--6~--------|
--4--------------------|--------------------------|--4--------------------|
-----------------------|--8-----------8-----------|-----------------------|
-----------------------|--------------------------|-----------------------|


  E  E  E  E  E  E  E  E     Q    H         Q                             
--------------------------|----------------------|-------|-------|-------|
-----------------6--5--6--|----------------------|-------|-------|-------|
-----7--6--7--6-----------|--7----L\-------------|-------|-------|-------|
--------------------------|----------------------|-------|-------|-------|
--8-----------------------|----------------------|-------|-------|-------|
--------------------------|----------------------|-------|-------|-------|


-------|-------|-------|-------|-------|-------|-------|-------|-------|-------|
-------|-------|-------|-------|-------|-------|-------|-------|-------|-------|
-------|-------|-------|-------|-------|-------|-------|-------|-------|-------|
-------|-------|-------|-------|-------|-------|-------|-------|-------|-------|
-------|-------|-------|-------|-------|-------|-------|-------|-------|-------|
-------|-------|-------|-------|-------|-------|-------|-------|-------|-------|


-------|-------|-------|-------|-------|-------|-------|-------|-------|-------|
-------|-------|-------|-------|-------|-------|-------|-------|-------|-------|
-------|-------|-------|-------|-------|-------|-------|-------|-------|-------|
-------|-------|-------|-------|-------|-------|-------|-------|-------|-------|
-------|-------|-------|-------|-------|-------|-------|-------|-------|-------|
-------|-------|-------|-------|-------|-------|-------|-------|-------|-------|


-------|-------|-------|-------|-------|-------|-------|-------|-------|-------|
-------|-------|-------|-------|-------|-------|-------|-------|-------|-------|
-------|-------|-------|-------|-------|-------|-------|-------|-------|-------|
-------|-------|-------|-------|-------|-------|-------|-------|-------|-------|
-------|-------|-------|-------|-------|-------|-------|-------|-------|-------|
-------|-------|-------|-------|-------|-------|-------|-------|-------|-------|


       PM PM                                            PM PM           
  Q    E  E  H           Q    Q    E  Q      E     Q    E  E  H         
----------------------|-------------------------|----------------------|
----------------------|-------------------------|----------------------|
----------------------|-------------------------|----------------------|
--2-------------------|--3----3-----------------|--2-------------------|
--2-------------------|--3----3-----------------|--2-------------------|
--0----0--0-----------|--1----1----1--3br----1--|--0----0--0-----------|


                                PM PM                                     
  Q    Q    E  E  E  E     Q    E  E  H           Q    Q    E  Q      E   
------------------------|----------------------|-------------------------|
------------------------|----------------------|-------------------------|
------------------------|----------------------|-------------------------|
--3----3----------------|--2-------------------|--3----3-----------------|
--3----3----3-----------|--2-------------------|--3----3-----------------|
--1----1-------4--1--3--|--0----0--0-----------|--1----1----1--3br----1--|


       PM PM                                           PM PM           
  Q    E  E  H           Q    Q    E  E  E  E     Q    E  E  H         
----------------------|------------------------|----------------------|
----------------------|------------------------|----------------------|
----------------------|------------------------|----------------------|
--2-------------------|--3----3----------------|--2-------------------|
--2-------------------|--3----3----3-----------|--2-------------------|
--0----0--0-----------|--1----1-------4--1--3--|--0----0--0-----------|


                                 PM PM                                    
  Q    Q    E  Q      E     Q    E  E  H           Q    Q    E  E  E  E   
-------------------------|----------------------|------------------------|
-------------------------|----------------------|------------------------|
-------------------------|----------------------|------------------------|
--3----3-----------------|--2-------------------|--3----3----------------|
--3----3-----------------|--2-------------------|--3----3----3-----------|
--1----1----1--3br----1--|--0----0--0-----------|--1----1-------4--1--3--|


       PM PM                                            PM PM           
  Q    E  E  H           Q    Q    E  Q      E     Q    E  E  H         
----------------------|-------------------------|----------------------|
----------------------|-------------------------|----------------------|
----------------------|-------------------------|----------------------|
--2-------------------|--3----3-----------------|--2-------------------|
--2-------------------|--3----3-----------------|--2-------------------|
--0----0--0-----------|--1----1----1--3br----1--|--0----0--0-----------|


  Q    Q    E  E  E  E     Q    E  E  H            E  E  E  E  E  E  E  E   
------------------------|-----------------------|--------------------------|
------------------------|-----------------------|--------------------------|
------------------------|-------6--4--6~--------|-----7--6--7-----7--6--7--|
--3----3----------------|--4--------------------|--------------------------|
--3----3----3-----------|-----------------------|--8-----------8-----------|
--1----1-------4--1--3--|-----------------------|--------------------------|


  Q    E  E  H            E  E  E  Q     E  Q        Q    E  E  H          
-----------------------|--------------------------|-----------------------|
-----------------------|--------------------------|-----------------------|
-------6--4--6~--------|-----7--6--7~----6--4~----|-------6--4--6~--------|
--4--------------------|--------------------------|--4--------------------|
-----------------------|--8-----------------------|-----------------------|
-----------------------|--------------------------|-----------------------|


  E  E  E  E  E  E  E  E     Q    E  E  H            E  E  E  E  E  E  E  E   
--------------------------|-----------------------|--------------------------|
--------------------------|-----------------------|-----------------6--5--6--|
-----7--6--7-----7--6--7--|-------6--4--6~--------|-----7--6--7--6-----------|
--------------------------|--4--------------------|--------------------------|
--8-----------8-----------|-----------------------|--8-----------------------|
--------------------------|-----------------------|--------------------------|


                                 PM  PM PM PM              
   Q      Q      Q      Q        E   E  E  E  E  E  E  E   
--14b----14b----14b----14\----|------------------7--------|
--17b----17b----17b----17\----|---------------8-----8-----|
------------------------------|------------------------9--|
------------------------------|---------------------------|
------------------------------|--7--10-----7--------------|
------------------------------|---------7-----------------|


  E  E  E  E  E  E  E  E      E    E   E   E   H         
--------------------------|--14b--14--------------------|
--8--7-----8--7-----7-----|-----------13--12~--L--------|
--------------------------|-----------------------------|
--------9--------9-----9--|-----------------------------|
--------------------------|-----------------------------|
--------------------------|-----------------------------|


  S S S S S S S S  S  S  S  S S S S S  
--------------------------------------|
--------------------------------------|
--9-9-9-9-7-7-7-7-10-10-10-10-9-9-9-9-|
--------------------------------------|
--------------------------------------|
--------------------------------------|


                                             \3                
  S S S S  S  S  S  S  S  S  S  S S S S S    W                 
------------------------------------------|-------------------|
--8-8-8-8-------------10-10-10-10-8-8-8-8-|-------------------|
----------10-10-10-10---------------------|-------------------|
------------------------------------------|-------------------|
------------------------------------------|-------------------|
------------------------------------------|--0----------------|


                                    SH             PM  PM  
   S S S  S S S E  Q     Q          H.             E   E   
-------------------7----------|---------------------------|
----------------8-------10----|---------------------------|
------------7-9---------------|--<>10~--------------------|
-----7-9-10-------------------|-------------------14--14--|
--10--------------------------|---------------------------|
------------------------------|---------------------------|


   S   S  E.   E.    E.   E.   E      E  E   Q    S   S  E   E   E   
-----------------------------------|--------------------------------|
--12h-13-12------------------------|--------------------------------|
--------------14~---13---14---10s--|--9--9~--L----9h-10p-9----------|
-----------------------------------|------------------------10--12--|
-----------------------------------|--------------------------------|
-----------------------------------|--------------------------------|


   S  S E   S   S  S  S S   S  S  S  S  S  S  S     E   E   E  H        E   
------------------------------------------------|--------------------------|
------------------------------------------------|--------------------------|
--10-12-9---------------------------------------|--------------------------|
-----------12p-10p-9----9h-10p-9----------------|--------------------------|
---------------------12----------12-10----------|-----------------------8--|
---------------------------------------13-12-10-|--12s--7h--8--7-----------|


  Q    E   H          E   
-------------------------|
-------------------------|
-------7-----------------|
--7-------10~------------|
---------------------19--|
-------------------------|


                                            |--3--|      
   S  S  S  S  S   S   S   S   S   S  S  S  S  S  S  E   
--------------15h-19p-15h-19s-20p-17--------------------|
-----------17------------------------18-----------------|
--------16------------------------------17--------------|
-----17------------------------------------19-----------|
--19------------------------------------------20-19-20--|
--------------------------------------------------------|


   E   E   E    E   E   E   E   E      W                  
-----------------------------------|---------------------|
-----------------------------------|---------------------|
-----------------------------------|---------------------|
--------------/17---L--17--16------|---------------------|
--19------19-------------------17--|--17~----------------|
------19---------------------------|---------------------|


                                                          |--3--|            
  H.            E  E     W                    E  E  E  E  S  S  S  E  E  E   
----------------------|--------------------|--------------------------------|
----------------------|--------------------|--------------------------------|
----------------------|--------------------|--5-----------------------------|
--7~------------8--7--|--5~----------------|-----8--7--8--7h-8p-7s-5--7--5--|
----------------------|--------------------|--------------------------------|
----------------------|--------------------|--------------------------------|


  H.            E  E     H.            E  E     W                  
----------------------|----------------------|--------------------|
----------------------|----------------------|--------------------|
----------------------|----------------------|--------------------|
----------------------|--7~------------8--7--|--5~----------------|
--5~------------5--8--|----------------------|--------------------|
----------------------|----------------------|--------------------|


              |--3--|                                                          
  E  E  E  E  S  S  S  E  E  E     H.            E  E     H.            E  E   
--------------------------------|----------------------|----------------------|
--------------------------------|----------------------|----------------------|
--5-----------------------------|----------------------|----------------------|
-----8--7--8--7h-8p-7s-5--7--5--|----------------------|--7~------------8--7--|
--------------------------------|--5~------------5--8--|----------------------|
--------------------------------|----------------------|----------------------|


                                   |--3--|                                   
  W                    E  E  E  E  S  S  S  E  E  E     H.            E  E   
--------------------|--------------------------------|----------------------|
--------------------|--------------------------------|----------------------|
--------------------|--5-----------------------------|----------------------|
--5~----------------|-----8--7--8--7h-8p-7s-5--7--5--|----------------------|
--------------------|--------------------------------|--5~------------5--8--|
--------------------|--------------------------------|----------------------|


                                                PM PM PM PM PM PM PM PM PM PM  
  H.            E  E     H         H            E  E  S  S  E  E  E  S  S  E   
----------------------|----------------------|--------------------------------|
----------------------|----------------------|--------------------------------|
----------------------|----------------------|--------------------------------|
--7~------------8--7--|--5~------------------|--------------------------------|
----------------------|------------8\--------|--2--2--2--2--2--2--2--2--2--2--|
----------------------|----------------------|--0--0--0--0--0--0--0--0--0--0--|


  Q    Q    Q    Q         Q    Q    E   E  Q       Q    Q    Q    Q     
----------------------|--------------------------|----------------------|
----------------------|--------------------------|----------------------|
----------------------|--------------------------|----------------------|
-------5----4----5----|--5g7----5----4h--5--5----|-------5----4----5----|
--7-------------------|--------------------------|--7-------------------|
----------------------|--------------------------|----------------------|


    Q     Q    E   E  Q       Q    Q    Q    Q         Q    Q    E   E  Q     
---------------------------|----------------------|--------------------------|
---------------------------|----------------------|--------------------------|
--<>4~---------------------|----------------------|--------------------------|
----------5----4h--5--5----|-------5----4----5----|--5g7----5----4h--5--5----|
---------------------------|--7-------------------|--------------------------|
---------------------------|----------------------|--------------------------|


  Q    Q    Q    Q       Q    Q    S  S  E   Q       Q    Q    Q    Q     
----------------------|---------------------------|----------------------|
----------------------|--5------------------------|----------------------|
--7----5----4---------|-------7-------------------|----------------------|
-----------------7----|------------5p-4h-5p--4----|-------5----4----5----|
----------------------|---------------------------|--7-------------------|
----------------------|---------------------------|----------------------|


    Q    Q    E   E  Q       Q    Q    Q    Q       Q     Q    E   E  Q     
--------------------------|----------------------|-------------------------|
--------------------------|----------------------|-------------------------|
--------------------------|----------------------|--4~---------------------|
--5g7----5----4h--5--5----|-------5----4----5----|--------5----4h--5--5----|
--------------------------|--7-------------------|-------------------------|
--------------------------|----------------------|-------------------------|


  Q    Q    Q    Q         Q    Q    E   E  Q       Q    Q    Q    Q     
----------------------|--------------------------|----------------------|
----------------------|--------------------------|----------------------|
----------------------|--------------------------|--7----5----4---------|
-------5----4----5----|--5g7----5----4h--5--5----|-----------------7----|
--7-------------------|--------------------------|----------------------|
----------------------|--------------------------|----------------------|


  Q    Q    S  S  S  S E  E     E  E  E  E  E  E  E  E   
-----------------------------|--------------------------|
--5--------------------------|--------------------------|
-------7----5p-4h-5p-4-------|--------------------------|
-----------------------7--5--|--------5--5--4--4--5--5--|
-----------------------------|--7--7--------------------|
-----------------------------|--------------------------|


  E  E  E  E  E  E  E  E     E  E  E  E  E  E  E  E   
--------------------------|--------------------------|
--------------------------|--------------------------|
--------------------------|--------------------------|
--7--7--5--5--4--4--5--5--|--------5--5--4--4--5--5--|
--------------------------|--7--7--------------------|
--------------------------|--------------------------|


  E  E  E  E  E  E  E  E     E  E  E  E  E  E  E  E   
--------------------------|--------------------------|
--------------------------|--------------------------|
--4--4--------------------|--------------------------|
--------5--5--4--4--5--5--|--------5--5--4--4--5--5--|
--------------------------|--7--7--------------------|
--------------------------|--------------------------|


  E  E  E  E  E  E  E  E     E  E  E  E  E  E  E  E   
--------------------------|--------------------------|
--------------------------|--------------------------|
--------------------------|--7--7--5--5--4--4--------|
--7--7--5--5--4--4--5--5--|--------------------7--7--|
--------------------------|--------------------------|
--------------------------|--------------------------|


  E  E  E  E  S  S  S  S E  E     S S S S S S S S S S S S S S S S  
-------------------------------|----------------------------------|
--5--5-------------------------|----------------------------------|
--------7--7--5p-4h-5p-4-------|----------------------------------|
-------------------------7--5--|----------5-5-5-5-4-4-4-4-5-5-5-5-|
-------------------------------|--7-7-7-7-------------------------|
-------------------------------|----------------------------------|


  S S S S S S S S S S S S S S S S    S S S S S S S S S S S S S S S S  
----------------------------------|----------------------------------|
----------------------------------|----------------------------------|
----------------------------------|----------------------------------|
--7-7-7-7-5-5-5-5-4-4-4-4-5-5-5-5-|----------5-5-5-5-4-4-4-4-5-5-5-5-|
----------------------------------|--7-7-7-7-------------------------|
----------------------------------|----------------------------------|


  S S S S S S S S S S S S S S S S    S S S S S S S S S S S S S S S S  
----------------------------------|----------------------------------|
----------------------------------|----------------------------------|
--4-4-4-4-------------------------|----------------------------------|
----------5-5-5-5-4-4-4-4-5-5-5-5-|----------5-5-5-5-4-4-4-4-5-5-5-5-|
----------------------------------|--7-7-7-7-------------------------|
----------------------------------|----------------------------------|


  S S S S S S S S S S S S S S S S    Q    Q    Q    Q     
----------------------------------|----------------------|
----------------------------------|----------------------|
----------------------------------|--7----5----4---------|
--7-7-7-7-5-5-5-5-4-4-4-4-5-5-5-5-|-----------------7----|
----------------------------------|----------------------|
----------------------------------|----------------------|


  Q    Q    E  E  Q        Q    H         Q      
------------------------|----------------------||
--5---------------------|----------------------||
-------7----5--4--5~----|--9----L\-------------||
------------------------|--9----L\-------------||
------------------------|--7----L\-------------||
------------------------|----------------------||





                                Libertina Grimm                                 




     Q    E  E  E  E  E  E     Q    E  E  E  E  E  E     Q    E  E  E  E  Q     
D||-------------------------|-------------------------|------------------------|
A||-------------------------|-------------------------|------------------------|
F||-------------------------|-------------------------|------------------------|
C||-------------------------|-------------------------|------------------------|
G||--4----4--2--4--4--4--6--|--5----5--4--5--5--5--6--|--4----4--2--4--4--4----|
D||--2----2--0--2--2--2--4--|--3----3--2--3--3--3--4--|--2----2--0--2--2--2----|


  Q    Q    Q    Q       Q    E  E  E  E  E  E     Q    E  E  E  E  E  E   
----------------------|-------------------------|-------------------------|
----------------------|-------------------------|-------------------------|
----------------------|-------------------------|-------------------------|
----------------------|-------------------------|-------------------------|
--8----8----7----7----|--4----4--2--4--4--4--6--|--5----5--4--5--5--5--6--|
--6----6----5----5----|--2----2--0--2--2--2--4--|--3----3--2--3--3--3--4--|


  Q    E  E  E  E  Q       Q    Q    Q    Q       Q    E  E  E  E  E  E   
------------------------|----------------------|-------------------------|
------------------------|----------------------|-------------------------|
------------------------|----------------------|-------------------------|
------------------------|----------------------|-------------------------|
--4----4--2--4--4--4----|--8----8----7----7----|--4----4--2--4--4--4--6--|
--2----2--0--2--2--2----|--6----6----5----5----|--2----2--0--2--2--2--4--|


  Q    E  E  E  E  E  E     Q    E  E  E  E  Q       Q    Q    Q    Q     
-------------------------|------------------------|----------------------|
-------------------------|------------------------|----------------------|
-------------------------|------------------------|----------------------|
-------------------------|------------------------|----------------------|
--5----5--4--5--5--5--6--|--4----4--2--4--4--4----|--8----8----7----7----|
--3----3--2--3--3--3--4--|--2----2--0--2--2--2----|--6----6----5----5----|


  Q    E  E  E  E  E  E     Q    E  E  E  E  E  E     Q    E  E  E  E  Q     
-------------------------|-------------------------|------------------------|
-------------------------|-------------------------|------------------------|
-------------------------|-------------------------|------------------------|
-------------------------|-------------------------|------------------------|
--4----4--2--4--4--4--6--|--5----5--4--5--5--5--6--|--4----4--2--4--4--4----|
--2----2--0--2--2--2--4--|--3----3--2--3--3--3--4--|--2----2--0--2--2--2----|


  Q    Q    Q    Q       S S S S S S S S S S S S S S E   
----------------------|---------------------------------|
----------------------|---------------------------------|
----------------------|---------------------------------|
----------------------|--------------------------5-4-5--|
--8----8----7----7----|--7-7-7-7-7-7-7-7-7-7-7-7--------|
--6----6----5----5----|---------------------------------|


  S S S S S S E  S S S S S S S S    S S S S S S S S S S S S S S E   
---------------------------------|---------------------------------|
---------------------------------|---------------------------------|
---------------------------------|---------------------------------|
--7-7-7-7-5-7-5--4-4-4-4---------|---------------------------------|
-------------------------7-7-7-7-|--6-6-6-6-6-6-6-6-6-6-6-6-7-6-7--|
---------------------------------|---------------------------------|


  S S S S S S S S S S S S S S S S    S S S S S S S S S S S S S S E   
----------------------------------|---------------------------------|
----------------------------------|---------------------------------|
----------------------------------|---------------------------------|
----------7-7-7-7---------5-5-5-5-|--------------------------5-4-5--|
--9-9-9-9---------6-6-6-6---------|--7-7-7-7-7-7-7-7-7-7-7-7--------|
----------------------------------|---------------------------------|


  S S S S S S E  S S S S S S S S    S S S S S S S S S S S S S S S S  
---------------------------------|----------------------------------|
---------------------------------|----------------------------------|
---------------------------------|----------------------------------|
--7-7-7-7-5-7-5--4-4-4-4---------|----------------------------------|
-------------------------7-7-7-7-|--6-6-6-6-6-6-6-6-6-6-7-7-6-6-7-7-|
---------------------------------|----------------------------------|


                                                 PM PM     
  S S S S S S S S S S S S S S S S    H        E  E  E  E   
----------------------------------|-----------------------|
----------------------------------|-----------------------|
----------------------------------|-----------------------|
----------7-7-7-7---------5-5-5-5-|--2--------L--------8--|
--9-9-9-9---------6-6-6-6---------|--2--------L--------8--|
----------------------------------|--0--------L--2--3--6--|


              PM                                        PM PM PM PM PM PM  
  H        E  E  E  E     W                   E  Q.     S  S  E  S  S  E   
-----------------------|-------------------|------------------------------|
-----------------------|-------------------|------------------------------|
-----------------------|-------------------|------------------------------|
--7--------L-----8--7--|--6----------------|--6--6------------------------|
--7--------L-----8--7--|--6----------------|--6--6------5--5--5--5--5--5--|
--5--------L--0--6--5--|--4----------------|--4--4------3--3--3--3--3--3--|


              PM PM                   PM                            
  H        E  E  E  E     H        E  E  E  E     W                 
-----------------------|-----------------------|-------------------|
-----------------------|-----------------------|-------------------|
-----------------------|-----------------------|-------------------|
--2--------L--------8--|--7--------L-----8--7--|--6----------------|
--2--------L--------8--|--7--------L-----8--7--|--6----------------|
--0--------L--2--3--6--|--5--------L--0--6--5--|--4----------------|


                                          PM PM                   PM        
            |----3----|                                                     
  E  Q.     Q    Q    Q       H        E  E  E  E     H        E  E  E  E   
---------------------------|-----------------------|-----------------------|
---------------------------|-----------------------|-----------------------|
---------------------------|-----------------------|-----------------------|
--5--5------4----5----7----|--2--------L--------8--|--7--------L-----8--7--|
--5--5------4----5----7----|--2--------L--------8--|--7--------L-----8--7--|
--3--3------2----3----5----|--0--------L--2--3--6--|--5--------L--0--6--5--|


                                PM PM PM PM PM PM                PM PM     
  W                   E  Q.     S  S  E  S  S  E     H        E  E  E  E   
-------------------|------------------------------|-----------------------|
-------------------|------------------------------|-----------------------|
-------------------|------------------------------|-----------------------|
--6----------------|--6--6------------------------|--2--------L--------8--|
--6----------------|--6--6------5--5--5--5--5--5--|--2--------L--------8--|
--4----------------|--4--4------3--3--3--3--3--3--|--0--------L--2--3--6--|


              PM                                                        
                                                        |----3----|     
  H        E  E  E  E     W                   E  Q.     Q    Q    Q     
-----------------------|-------------------|---------------------------|
-----------------------|-------------------|---------------------------|
-----------------------|-------------------|---------------------------|
--7--------L-----8--7--|--6----------------|--5--5------4----5----7----|
--7--------L-----8--7--|--6----------------|--5--5------4----5----7----|
--5--------L--0--6--5--|--4----------------|--3--3------2----3----5----|


  H.           Q       H        Q    Q       W                 
--------------------|---------------------|-------------------|
--------------------|---------------------|-------------------|
--------------------|---------------------|-------------------|
--4------------4----|--5--------5----2----|--4----------------|
--4------------4----|--5--------5----2----|--4----------------|
--2------------2----|--3--------3----0----|--2----------------|


  Q    E   E  Q    Q       H.           Q       H        Q    Q     
------------------------|--------------------|---------------------|
------------------------|--------------------|---------------------|
------------------------|--------------------|---------------------|
--5-----------8----7----|--4------------4----|--5--------5----2----|
--5-----------8----7----|--4------------4----|--5--------5----2----|
--3----0h--3--6----5----|--2------------2----|--3--------3----0----|


  W                   Q    E   E  Q    Q     
-------------------|------------------------|
-------------------|------------------------|
-------------------|------------------------|
--4----------------|--5-----------8----7----|
--4----------------|--5-----------8----7----|
--2----------------|--3----0h--3--6----5----|


       PM PM PM PM PM PM PM PM PM PM PM PM         PM PM PM PM            
  Q    S  S  S  S  S  S  S  S  S  S  S  S     Q    S  S  S  S  Q    Q     
-------------------------------------------|-----------------------------|
-------------------------------------------|-----------------------------|
-------------------------------------------|-----------------------------|
-------------------------------------------|-----------------------------|
--4----------------------------------------|--5----------------5----2----|
--2----2--2--2--2--2--2--2--2--2--2--2--2--|--3----3--3--3--3--3----0----|


       PM PM PM PM PM PM PM PM PM PM PM PM                           
  Q    S  S  S  S  S  S  S  S  S  S  S  S     Q    E   E  Q    Q     
-------------------------------------------|------------------------|
-------------------------------------------|------------------------|
-------------------------------------------|------------------------|
-------------------------------------------|------------------------|
--4----------------------------------------|--5-----------8----7----|
--2----2--2--2--2--2--2--2--2--2--2--2--2--|--3----0h--3--6----5----|


       PM PM PM PM PM PM PM PM PM PM PM PM         PM PM PM PM            
  Q    S  S  S  S  S  S  S  S  S  S  S  S     Q    S  S  S  S  Q    Q     
-------------------------------------------|-----------------------------|
-------------------------------------------|-----------------------------|
-------------------------------------------|-----------------------------|
-------------------------------------------|-----------------------------|
--4----------------------------------------|--5----------------5----2----|
--2----2--2--2--2--2--2--2--2--2--2--2--2--|--3----3--3--3--3--3----0----|


       PM PM PM PM PM PM PM PM PM PM PM PM                             
  Q    S  S  S  S  S  S  S  S  S  S  S  S     Q    E   E  E  E  E  E   
-------------------------------------------|--------------------------|
-------------------------------------------|--------------------------|
-------------------------------------------|--------------------------|
-------------------------------------------|--------------------------|
--4----------------------------------------|--5-----------8--7--7--8--|
--2----2--2--2--2--2--2--2--2--2--2--2--2--|--3----0h--3--6--5--5--6--|


  E  E  E  E  E  E  Q       E  E  E  E  E  E  E  E     E  E  E  E  E  E  Q     
-------------------------|--------------------------|-------------------------|
-------------------------|--------------------------|-------------------------|
-------------------------|--------------------------|-------------------------|
-------------------------|--------------------------|-------------------------|
--3--3--3--4--4--4--6----|--3--3--3--4--4--4--6--5--|--3--3--3--4--4--4--6----|
--1--1--1--2--2--2--4----|--1--1--1--2--2--2--4--3--|--1--1--1--2--2--2--4----|


  E  E  E  E  E  E  E  E     E  E  E  E  E  E  Q       E  E  E  E  E  E  E  E   
--------------------------|-------------------------|--------------------------|
--------------------------|-------------------------|--------------------------|
--------------------------|-------------------------|--------------------------|
--------------------------|-------------------------|--------------------------|
--3--3--3--4--4--4--6--5--|--3--3--3--4--4--4--6----|--3--3--3--4--4--4--6--5--|
--1--1--1--2--2--2--4--3--|--1--1--1--2--2--2--4----|--1--1--1--2--2--2--4--3--|


  E  E  E  E  E  E  Q       E  E  E  E  E  E  E  E     Q    E  E  E  E  E  E   
-------------------------|--------------------------|-------------------------|
-------------------------|--------------------------|-------------------------|
-------------------------|--------------------------|-------------------------|
-------------------------|--------------------------|-------------------------|
--3--3--3--4--4--4--6----|--3--3--3--4--4--4--6--5--|--4----4--2--4--4--4--6--|
--1--1--1--2--2--2--4----|--1--1--1--2--2--2--4--3--|--2----2--0--2--2--2--4--|


  Q    E  E  E  E  E  E     Q    E  E  E  E  Q       Q    Q    Q    Q     
-------------------------|------------------------|----------------------|
-------------------------|------------------------|----------------------|
-------------------------|------------------------|----------------------|
-------------------------|------------------------|----------------------|
--5----5--4--5--5--5--6--|--4----4--2--4--4--4----|--8----8----7----7----|
--3----3--2--3--3--3--4--|--2----2--0--2--2--2----|--6----6----5----5----|


  Q    E  E  E  E  E  E     Q    E  E  E  E  E  E     Q    E  E  E  E  Q     
-------------------------|-------------------------|------------------------|
-------------------------|-------------------------|------------------------|
-------------------------|-------------------------|------------------------|
-------------------------|-------------------------|------------------------|
--4----4--2--4--4--4--6--|--5----5--4--5--5--5--6--|--4----4--2--4--4--4----|
--2----2--0--2--2--2--4--|--3----3--2--3--3--3--4--|--2----2--0--2--2--2----|


  Q    Q    Q    Q       S S S S S S S S S S S S S S E   
----------------------|---------------------------------|
----------------------|---------------------------------|
----------------------|---------------------------------|
----------------------|--------------------------5-4-5--|
--8----8----7----7----|--7-7-7-7-7-7-7-7-7-7-7-7--------|
--6----6----5----5----|---------------------------------|


  S S S S S S E  S S S S S S S S    S S S S S S S S S S S S S S E   
---------------------------------|---------------------------------|
---------------------------------|---------------------------------|
---------------------------------|---------------------------------|
--7-7-7-7-5-7-5--4-4-4-4---------|---------------------------------|
-------------------------7-7-7-7-|--6-6-6-6-6-6-6-6-6-6-6-6-7-6-7--|
---------------------------------|---------------------------------|


  S S S S S S S S S S S S S S S S    S S S S S S S S S S S S S S E   
----------------------------------|---------------------------------|
----------------------------------|---------------------------------|
----------------------------------|---------------------------------|
----------7-7-7-7---------5-5-5-5-|--------------------------5-4-5--|
--9-9-9-9---------6-6-6-6---------|--7-7-7-7-7-7-7-7-7-7-7-7--------|
----------------------------------|---------------------------------|


  S S S S S S E  S S S S S S S S    S S S S S S S S S S S S S S E   
---------------------------------|---------------------------------|
---------------------------------|---------------------------------|
---------------------------------|---------------------------------|
--7-7-7-7-5-7-5--4-4-4-4---------|---------------------------------|
-------------------------7-7-7-7-|--6-6-6-6-6-6-6-6-6-6-6-6-7-6-7--|
---------------------------------|---------------------------------|


                                                 PM PM     
  S S S S S S S S S S S S S S S S    H        E  E  E  E   
----------------------------------|-----------------------|
----------------------------------|-----------------------|
----------------------------------|-----------------------|
----------7-7-7-7---------5-5-5-5-|--2--------L--------8--|
--9-9-9-9---------6-6-6-6---------|--2--------L--------8--|
----------------------------------|--0--------L--2--3--6--|


              PM                                        PM PM PM PM PM PM  
  H        E  E  E  E     W                   E  Q.     S  S  E  S  S  E   
-----------------------|-------------------|------------------------------|
-----------------------|-------------------|------------------------------|
-----------------------|-------------------|------------------------------|
--7--------L-----8--7--|--6----------------|--6--6------------------------|
--7--------L-----8--7--|--6----------------|--6--6------5--5--5--5--5--5--|
--5--------L--0--6--5--|--4----------------|--4--4------3--3--3--3--3--3--|


              PM PM                   PM                            
  H        E  E  E  E     H        E  E  E  E     W                 
-----------------------|-----------------------|-------------------|
-----------------------|-----------------------|-------------------|
-----------------------|-----------------------|-------------------|
--2--------L--------8--|--7--------L-----8--7--|--6----------------|
--2--------L--------8--|--7--------L-----8--7--|--6----------------|
--0--------L--2--3--6--|--5--------L--0--6--5--|--4----------------|


            |----3----|                                                
  E  Q.     Q    Q    Q       H.           Q       H        Q    Q     
---------------------------|--------------------|---------------------|
---------------------------|--------------------|---------------------|
---------------------------|--------------------|---------------------|
--5--5------4----5----7----|--4------------4----|--5--------5----2----|
--5--5------4----5----7----|--4------------4----|--5--------5----2----|
--3--3------2----3----5----|--2------------2----|--3--------3----0----|


  W                   Q    E   E  Q    Q       H.           Q     
-------------------|------------------------|--------------------|
-------------------|------------------------|--------------------|
-------------------|------------------------|--------------------|
--4----------------|--5-----------8----7----|--4------------4----|
--4----------------|--5-----------8----7----|--4------------4----|
--2----------------|--3----0h--3--6----5----|--2------------2----|


  H        Q    Q       W                   Q    E   E  Q    Q     
---------------------|-------------------|------------------------|
---------------------|-------------------|------------------------|
---------------------|-------------------|------------------------|
--5--------5----2----|--4----------------|--5-----------8----7----|
--5--------5----2----|--4----------------|--5-----------8----7----|
--3--------3----0----|--2----------------|--3----0h--3--6----5----|


       PM PM PM PM PM PM PM PM PM PM PM PM         PM PM PM PM            
  Q    S  S  S  S  S  S  S  S  S  S  S  S     Q    S  S  S  S  Q    Q     
-------------------------------------------|-----------------------------|
-------------------------------------------|-----------------------------|
-------------------------------------------|-----------------------------|
-------------------------------------------|-----------------------------|
--4----------------------------------------|--5----------------5----2----|
--2----2--2--2--2--2--2--2--2--2--2--2--2--|--3----3--3--3--3--3----0----|


       PM PM PM PM PM PM PM PM PM PM PM PM                           
  Q    S  S  S  S  S  S  S  S  S  S  S  S     Q    E   E  Q    Q     
-------------------------------------------|------------------------|
-------------------------------------------|------------------------|
-------------------------------------------|------------------------|
-------------------------------------------|------------------------|
--4----------------------------------------|--5-----------8----7----|
--2----2--2--2--2--2--2--2--2--2--2--2--2--|--3----0h--3--6----5----|


       PM PM PM PM PM PM PM PM PM PM PM PM         PM PM PM PM            
  Q    S  S  S  S  S  S  S  S  S  S  S  S     Q    S  S  S  S  Q    Q     
-------------------------------------------|-----------------------------|
-------------------------------------------|-----------------------------|
-------------------------------------------|-----------------------------|
-------------------------------------------|-----------------------------|
--4----------------------------------------|--5----------------5----2----|
--2----2--2--2--2--2--2--2--2--2--2--2--2--|--3----3--3--3--3--3----0----|


       PM PM PM PM PM PM PM PM PM PM PM PM                             
  Q    S  S  S  S  S  S  S  S  S  S  S  S     Q    E   E  E  E  E  E   
-------------------------------------------|--------------------------|
-------------------------------------------|--------------------------|
-------------------------------------------|--------------------------|
-------------------------------------------|--------------------------|
--4----------------------------------------|--5-----------8--7--7--8--|
--2----2--2--2--2--2--2--2--2--2--2--2--2--|--3----0h--3--6--5--5--6--|


  E  E  E  E  E  E  Q       E  E  E  E  E  E  E  E     E  E  E  E  E  E  Q     
-------------------------|--------------------------|-------------------------|
-------------------------|--------------------------|-------------------------|
-------------------------|--------------------------|-------------------------|
-------------------------|--------------------------|-------------------------|
--3--3--3--4--4--4--6----|--3--3--3--4--4--4--6--5--|--3--3--3--4--4--4--6----|
--1--1--1--2--2--2--4----|--1--1--1--2--2--2--4--3--|--1--1--1--2--2--2--4----|


  E  E  E  E  E  E  E  E     E  E  E  E  E  E  Q       E  E  E  E  E  E  E  E   
--------------------------|-------------------------|--------------------------|
--------------------------|-------------------------|--------------------------|
--------------------------|-------------------------|--------------------------|
--------------------------|-------------------------|--------------------------|
--3--3--3--4--4--4--6--5--|--3--3--3--4--4--4--6----|--3--3--3--4--4--4--6--5--|
--1--1--1--2--2--2--4--3--|--1--1--1--2--2--2--4----|--1--1--1--2--2--2--4--3--|


  E  E  E  E  E  E  Q       E  E  E  E  E  E  Q       E  E  E  E  E  E  Q     
-------------------------|-------------------------|-------------------------|
-------------------------|-------------------------|-------------------------|
-------------------------|-------------------------|-------------------------|
-------------------------|-------------------------|-------------------------|
--3--3--3--4--4--4--6----|--3--3--3--4--4--4-------|--3--3--3--4--4--4--6----|
--1--1--1--2--2--2--4----|--1--1--1--2--2--2-------|--1--1--1--2--2--2--4----|


  E  E  E  E  E  E  E  E     E  E  E  E  E  E  Q       E  E  E  E  E  E  E  E   
--------------------------|-------------------------|--------------------------|
--------------------------|-------------------------|--------------------------|
--------------------------|-------------------------|--------------------------|
--------------------------|-------------------------|--------------------------|
--3--3--3--4--4--4--6--5--|--3--3--3--4--4--4--6----|--3--3--3--4--4--4--6--5--|
--1--1--1--2--2--2--4--3--|--1--1--1--2--2--2--4----|--1--1--1--2--2--2--4--3--|


  E  E  E  E  E  E  Q       E  E  E  E  E  E  E  E     E  E  E  E  E  E  Q     
-------------------------|--------------------------|-------------------------|
-------------------------|--------------------------|-------------------------|
-------------------------|--------------------------|-------------------------|
-------------------------|--------------------------|-------------------------|
--3--3--3--4--4--4--6----|--3--3--3--4--4--4--6--5--|--3--3--3--4--4--4--6----|
--1--1--1--2--2--2--4----|--1--1--1--2--2--2--4--3--|--1--1--1--2--2--2--4----|


  E  E  E  E  E  E  E  E     Q    E  E  E  E  E  E     Q    E  E  E  E  E  E   
--------------------------|-------------------------|-------------------------|
--------------------------|-------------------------|-------------------------|
--------------------------|-------------------------|-------------------------|
--------------------------|-------------------------|-------------------------|
--3--3--3--4--4--4--6--5--|--4----4--2--4--4--4--6--|--5----5--4--5--5--5--6--|
--1--1--1--2--2--2--4--3--|--2----2--0--2--2--2--4--|--3----3--2--3--3--3--4--|


  Q    E  E  E  E  Q       Q    Q    Q    Q       Q    E  E  E  E  E  E   
------------------------|----------------------|-------------------------|
------------------------|----------------------|-------------------------|
------------------------|----------------------|-------------------------|
------------------------|----------------------|-------------------------|
--4----4--2--4--4--4----|--8----8----7----7----|--4----4--2--4--4--4--6--|
--2----2--0--2--2--2----|--6----6----5----5----|--2----2--0--2--2--2--4--|


  Q    E  E  E  E  E  E     Q    E  E  E  E  Q       E  E  Q    E  E  E  E   
-------------------------|------------------------|-------------------------|
-------------------------|------------------------|-------------------------|
-------------------------|------------------------|-------------------------|
-------------------------|------------------------|-------------------------|
--5----5--4--5--5--5--6--|--4----4--2--4--4--4----|--3--3-------3--6--5--3--|
--3----3--2--3--3--3--4--|--2----2--0--2--2--2----|--1--1-------1--4--3--1--|


                                                           PM     
  W                   W                   E  E  E  E  Q    E  E   
-------------------|-------------------|-------------------------|
-------------------|-------------------|-------------------------|
-------------------|-------------------|-------------------------|
-------------------|-------------------|-------------------------|
--5----------------|--L----------------|--5--7--7--5--8----------|
-------------------|-------------------|--3--5--5--3--6----5-----|


  E  E  E  E  E  S S S S S S    W                   W                 
-----------------------------|-------------------|-------------------|
-----------------------------|-------------------|-------------------|
-----------------------------|-------------------|-------------------|
-----------------------------|-------------------|--3----------------|
--5--7--7-----3--2-3-5-3-3-2-|--5----------------|-------------------|
--3--5--5--0-----------------|-------------------|-------------------|


                   PM                               
  E  E  E  E  Q    E  E     E  Q    E  E  E  E  E   
-------------------------|-------------------------|
-------------------------|-------------------------|
-------------------------|-------------------------|
-------------------------|-------------------------|
--5--7--7--5--8----------|--5--7-------3--6--5--3--|
--3--5--5--3--6----5-----|--3--5----0--1--4--3--1--|


  S S S S S S S S S S S S S  S S  S    S S S S S S S S S S S S S S S S  
------------------------------------|----------------------------------|
------------------------------------|----------------------------------|
------------------------------------|----------------------------------|
------------------------------------|----------------------------------|
--5-5-5-5-5-5-5-5-5-5-5-5-6p-3-6p-3-|--5-5-5-5-5-5-5-5-5-5-5-5-5-5-5-5-|
------------------------------------|----------------------------------|


                   PM                                    
                                               |--3--|   
  E  E  E  E  Q    E  E     E  E  E  E  E  S S E  E  E   
-------------------------|------------------------------|
-------------------------|------------------------------|
-------------------------|------------------------------|
-------------------------|------------------------------|
--5--7--7--5--8----------|--5--7--7-----3--2-3-5--3--2--|
--3--5--5--3--6----5-----|--3--5--5--0------------------|


  S S S S S S S S S S S S S  S S  S    S S S S S S S S S S S S S S S S  
------------------------------------|----------------------------------|
------------------------------------|----------------------------------|
------------------------------------|----------------------------------|
------------------------------------|----------------------------------|
--5-5-5-5-5-5-5-5-5-5-5-5-6p-3-6p-3-|--5-5-5-5-5-5-5-5-5-5-5-5-5-5-5-5-|
------------------------------------|----------------------------------|


                   PM                                
  E  E  E  E  Q    E  E     E  E  E  E  E  E  E  E   
-------------------------|--------------------------|
-------------------------|--------------------------|
-------------------------|--------------------------|
-------------------------|--------------------------|
--5--7--7--5--8----------|--5--7--7-----3--6--5--3--|
--3--5--5--3--6----5-----|--3--5--5--0--1--4--3--1--|


  S S S S S S S S S S S S S  S S  S    S S S S S S S S S S S S S S S S  
------------------------------------|----------------------------------|
------------------------------------|----------------------------------|
------------------------------------|----------------------------------|
--3-3-3-3-3-3-3-3-3-3-3-3-5p-3-5p-3-|--3-3-3-3-3-3-3-3-3-3-3-3-3-3-3-3-|
------------------------------------|----------------------------------|
------------------------------------|----------------------------------|


                   PM                                    
                                               |--3--|   
  E  E  E  E  Q    E  E     E  E  E  E  E  S S E  E  E   
-------------------------|------------------------------|
-------------------------|------------------------------|
-------------------------|------------------------------|
-------------------------|------------------------------|
--5--7--7--5--8----------|--5--7--7-----3--2-3-5--3--2--|
--3--5--5--3--6----5-----|--3--5--5--0------------------|


  S S S S S S S S S S S S S  S S  S    S S S S S S S S S S S S S S S S  
------------------------------------|----------------------------------|
------------------------------------|----------------------------------|
------------------------------------|----------------------------------|
--3-3-3-3-3-3-3-3-3-3-3-3-5p-3-5p-3-|--3-3-3-3-3-3-3-3-3-3-3-3-3-3-3-3-|
------------------------------------|----------------------------------|
------------------------------------|----------------------------------|


                   PM                                                 PM     
  E  E  E  E  Q    E  E     E  E  E  E  Q    Q       E  E  E  E  Q    E  E   
-------------------------|------------------------|-------------------------|
-------------------------|------------------------|-------------------------|
-------------------------|------------------------|-------------------------|
-------------------------|------------------------|-------------------------|
--5--7--7--5--8----------|--5--7--7--5--8----8----|--5--7--7--5--8----------|
--3--5--5--3--6----5-----|--3--5--5--3--6----6----|--3--5--5--3--6----5-----|


  E  E  E  E  E  E  E  S  S    Q    Q    H                                  
----------------------------|---------------------|----|----|----|----|----|
----------------------------|---------------------|----|----|----|----|----|
----------------------------|---------------------|----|----|----|----|----|
----------------------------|---------------------|----|----|----|----|----|
--5--7--7--------7-----6p-0-|--3------------------|----|----|----|----|----|
--3--5--5--0--6-----5-------|--1------------------|----|----|----|----|----|


            E  E  E  E  E  E  Q       E  E  E  E  E  E  E  E   
----|----|-------------------------|--------------------------|
----|----|-------------------------|--------------------------|
----|----|-------------------------|--------------------------|
----|----|-------------------------|--------------------------|
----|----|--3--3--3--4--4--4--6----|--3--3--3--4--4--4--6--5--|
----|----|--1--1--1--2--2--2--4----|--1--1--1--2--2--2--4--3--|


  E  E  E  E  E  E  Q       E  E  E  E  E  E  E  E     E  E  E  E  E  E  Q     
-------------------------|--------------------------|-------------------------|
-------------------------|--------------------------|-------------------------|
-------------------------|--------------------------|-------------------------|
-------------------------|--------------------------|-------------------------|
--3--3--3--4--4--4--6----|--3--3--3--4--4--4--6--5--|--3--3--3--4--4--4--6----|
--1--1--1--2--2--2--4----|--1--1--1--2--2--2--4--3--|--1--1--1--2--2--2--4----|


  E  E  E  E  E  E  E  E     E  E  E  E  E  E  Q       E  E  E  E  E  E  Q     
--------------------------|-------------------------|-------------------------|
--------------------------|-------------------------|-------------------------|
--------------------------|-------------------------|-------------------------|
--------------------------|-------------------------|-------------------------|
--3--3--3--4--4--4--6--5--|--3--3--3--4--4--4--6----|--3--3--3--4--4--4-------|
--1--1--1--2--2--2--4--3--|--1--1--1--2--2--2--4----|--1--1--1--2--2--2-------|


  E  E  E  E  E  E  Q       E  E  E  E  E  E  E  E     E  E  E  E  E  E  Q     
-------------------------|--------------------------|-------------------------|
-------------------------|--------------------------|-------------------------|
-------------------------|--------------------------|-------------------------|
-------------------------|--------------------------|-------------------------|
--3--3--3--4--4--4--6----|--3--3--3--4--4--4--6--5--|--3--3--3--4--4--4--6----|
--1--1--1--2--2--2--4----|--1--1--1--2--2--2--4--3--|--1--1--1--2--2--2--4----|


  E  E  E  E  E  E  E  E     E  E  E  E  E  E  Q       E  E  E  E  E  E  E  E   
--------------------------|-------------------------|--------------------------|
--------------------------|-------------------------|--------------------------|
--------------------------|-------------------------|--------------------------|
--------------------------|-------------------------|--------------------------|
--3--3--3--4--4--4--6--5--|--3--3--3--4--4--4--6----|--3--3--3--4--4--4--6--5--|
--1--1--1--2--2--2--4--3--|--1--1--1--2--2--2--4----|--1--1--1--2--2--2--4--3--|


  E  E  E  E  E  E  Q       E  E  E  E  E  E  Q       E  E  E  E  E  E  Q     
-------------------------|-------------------------|-------------------------|
-------------------------|-------------------------|-------------------------|
-------------------------|-------------------------|-------------------------|
-------------------------|-------------------------|-------------------------|
--3--3--3--4--4--4--6----|--3--3--3--4--4--4-------|--3--3--3--4--4--4--6----|
--1--1--1--2--2--2--4----|--1--1--1--2--2--2-------|--1--1--1--2--2--2--4----|


  E  E  E  E  E  E  E  E     E  E  E  E  E  E  Q       E  E  E  E  E  E  E  E   
--------------------------|-------------------------|--------------------------|
--------------------------|-------------------------|--------------------------|
--------------------------|-------------------------|--------------------------|
--------------------------|-------------------------|--------------------------|
--3--3--3--4--4--4--6--5--|--3--3--3--4--4--4--6----|--3--3--3--4--4--4--6--5--|
--1--1--1--2--2--2--4--3--|--1--1--1--2--2--2--4----|--1--1--1--2--2--2--4--3--|


  E  E  E  E  E  E  Q       E  E  E  E  E  E  E  E     E  E  E  E  E  E  Q     
-------------------------|--------------------------|-------------------------|
-------------------------|--------------------------|-------------------------|
-------------------------|--------------------------|-------------------------|
-------------------------|--------------------------|-------------------------|
--3--3--3--4--4--4--6----|--3--3--3--4--4--4--6--5--|--3--3--3--4--4--4--6----|
--1--1--1--2--2--2--4----|--1--1--1--2--2--2--4--3--|--1--1--1--2--2--2--4----|


  E  E  E  E  E  E  E  E     S S S S S S S S S S S S S S S S  
--------------------------|----------------------------------|
--------------------------|----------------------------------|
--------------------------|----------------------------------|
--------------------------|----------------------------------|
--3--3--3--4--4--4--6--5--|----------------------------------|
--1--1--1--2--2--2--4--3--|--0-0-0-0-0-0-0-0-0-0-2-2-3-3-2-2-|


  S S S S S S S S S S S S S S S S    S S S S S S S S S S S S S S E    
----------------------------------|----------------------------------|
----------------------------------|----------------------------------|
----------------------------------|----------8-8-8-8-----------------|
----------------------------------|------------------8-8-8-8-9-9-9\--|
----------------------------------|--6-6-6-6-------------------------|
--5-5-5-5-3-3-5-3-2-2-2-2-0-0-0-0-|----------------------------------|


  S S S S S S S S S S S S S S S S    S S S S S S S S S S S S S S S S  
----------------------------------|----------------------------------|
----------------------------------|----------------------------------|
----------------------------------|----------------------------------|
----------------------------------|----------------------------------|
----------------------------------|----------------------------------|
--2-2-2-2-5-5-5-5-0-0-0-0-3-3-3-3-|--0-0-0-0-0-0-0-0-0-0-2-2-3-3-2-2-|


  S S S S S S S S S S S S S S S S    S S S S S S S S S S S S S S E    
----------------------------------|----------------------------------|
----------------------------------|----------------------------------|
----------------------------------|----------8-8-8-8-----------------|
----------------------------------|------------------8-8-8-8-9-9-9\--|
----------------------------------|--6-6-6-6-------------------------|
--5-5-5-5-3-3-5-3-2-2-2-2-0-0-0-0-|----------------------------------|


                                     |--3--|  |--3--|  |--3--|  |--3--|   
  S S S S S S S S S S S S S S S S    E  E  E  E  E  E  E  E  E  E  E  E   
----------------------------------|--------------------------------------|
----------------------------------|--------------------------------------|
----------------------------------|--------------------------------------|
----------------------------------|--------------------------------------|
----------------------------------|--0--0--0--0--0--0--0--0--0--2--3--2--|
--2-2-2-2-5-5-5-5-0-0-0-0-3-3-3-3-|--------------------------------------|


  |--3--|  |--3--|  |--3--|  |--3--|     |--3--|  |--3--|  |--3--|  |--3--|   
  E  E  E  E  E  E  E  E  E  E  E  E     E  E  E  E  E  E  E  E  E  E  E  E   
--------------------------------------|--------------------------------------|
--------------------------------------|--------------------------------------|
--------------------------------------|--------------------------------------|
--------------------------------------|--------------------------------------|
--5--5--5--3--5--3--2--2--2--0--0--0--|--------------------------------------|
--------------------------------------|--4--4--4--4--4--4--4--4--4--5--7--5--|


  |--3--|  |--3--|  |--3--|  |--3--|     |--3--|  |--3--|  |--3--|  |--3--|   
  E  E  E  E  E  E  E  E  E  E  E  E     E  E  E  E  E  E  E  E  E  E  E  E   
--------------------------------------|--------------------------------------|
--------------------------------------|--------------------------------------|
--------------------------------------|--------------------------------------|
--------------------------------------|--------------------------------------|
-----------5--5--5-----------3--3--3--|--0--0--0--0--0--0--0--0--0--2--3--2--|
--7--7--7-----------5--5--5-----------|--------------------------------------|


  |--3--|  |--3--|  |--3--|  |--3--|     |--3--|  |--3--|  |--3--|  |--3--|   
  E  E  E  E  E  E  E  E  E  E  E  E     E  E  E  E  E  E  E  E  E  E  E  E   
--------------------------------------|--------------------------------------|
--------------------------------------|--------------------------------------|
--------------------------------------|--------------------------------------|
--------------------------------------|--------------------------------------|
--5--5--5--3--5--3--2--2--2--0--0--0--|--------------------------------------|
--------------------------------------|--4--4--4--4--4--4--4--4--4--5--7--5--|


  |--3--|  |--3--|  |--3--|  |--3--|                                     
  E  E  E  E  E  E  E  E  E  E  E  E     S S S S S S S S S S S S S S E   
--------------------------------------|---------------------------------|
--------------------------------------|---------------------------------|
--------------------------------------|---------------------------------|
--------------------------------------|--------------------------5-4-5--|
-----------5--5--5-----------3--3--3--|--7-7-7-7-7-7-7-7-7-7-7-7--------|
--7--7--7-----------5--5--5-----------|---------------------------------|


  S S S S S S E  S S S S S S S S    S S S S S S S S S S S S S S S S  
---------------------------------|----------------------------------|
---------------------------------|----------------------------------|
---------------------------------|----------------------------------|
--7-7-7-7-5-7-5--4-4-4-4---------|----------------------------------|
-------------------------7-7-7-7-|--6-6-6-6-6-6-6-6-6-6-7-7-6-6-7-7-|
---------------------------------|----------------------------------|


  S S S S S S S S S S S S S S S S    S S S S S S S S S S S S S S E   
----------------------------------|---------------------------------|
----------------------------------|---------------------------------|
----------------------------------|---------------------------------|
----------7-7-7-7---------5-5-5-5-|--------------------------5-4-5--|
--9-9-9-9---------6-6-6-6---------|--7-7-7-7-7-7-7-7-7-7-7-7--------|
----------------------------------|---------------------------------|


  S S S S S S E  S S S S S S S S    S S S S S S S S S S S S S S S S  
---------------------------------|----------------------------------|
---------------------------------|----------------------------------|
---------------------------------|----------------------------------|
--7-7-7-7-5-7-5--4-4-4-4---------|----------------------------------|
-------------------------7-7-7-7-|--6-6-6-6-6-6-6-6-6-6-7-7-6-6-7-7-|
---------------------------------|----------------------------------|


  S S S S S S S S S S S S S S S S    S S S S S S S S S S S S S S E   
----------------------------------|---------------------------------|
----------------------------------|---------------------------------|
----------------------------------|---------------------------------|
----------7-7-7-7---------5-5-5-5-|--------------------------5-4-5--|
--9-9-9-9---------6-6-6-6---------|--7-7-7-7-7-7-7-7-7-7-7-7--------|
----------------------------------|---------------------------------|


  S S S S S S E  S S S S S S S S    S S S S S S S S S S S S S S S S  
---------------------------------|----------------------------------|
---------------------------------|----------------------------------|
---------------------------------|----------------------------------|
--7-7-7-7-5-7-5--4-4-4-4---------|----------------------------------|
-------------------------7-7-7-7-|--6-6-6-6-6-6-6-6-6-6-7-7-6-6-7-7-|
---------------------------------|----------------------------------|


  S S S S S S S S S S S S S S S S    S S S S S S S S S S S S S S E   
----------------------------------|---------------------------------|
----------------------------------|---------------------------------|
----------------------------------|---------------------------------|
----------7-7-7-7---------5-5-5-5-|--------------------------5-4-5--|
--9-9-9-9---------6-6-6-6---------|--7-7-7-7-7-7-7-7-7-7-7-7--------|
----------------------------------|---------------------------------|


  S S S S S S E  S S S S S S S S    H        E  E  E  E   
---------------------------------|-----------------------|
---------------------------------|-----------------------|
---------------------------------|-----------------------|
--7-7-7-7-5-7-5--4-4-4-4---------|-----------------------|
-------------------------7-7-7-7-|--6--------L--6--7--6--|
---------------------------------|-----------------------|


  Q    Q    Q    Q       W                    W                 
----------------------|--------------------|-------------------|
----------------------|--------------------|-------------------|
----------------------|--------------------|-------------------|
-------7--------------|--------------------|-------------------|
--9---------7----6----|--7~----------------|--L----------------|
----------------------|--------------------|-------------------|


  H        H           W                  
--------------------|-------------------||
--------------------|-------------------||
--------------------|-------------------||
--------------------|-------------------||
--L--------L--------|--L----------------||
--------------------|-------------------||






                                  Byronic Man                                   

                 
     W                                                   W                 
E||---------------------------------------------------|-------------------|
B||---------------------------------------------------|-------------------|
G||---------------------------------------------------|-------------------|
D||---------------------------------------------------|-------------------|
A||---------------------------------------------------|-------------------|
E||---------------------------------------------------|-------------------|


  W                   W                   W                   W                 
-------------------|-------------------|-------------------|-------------------|
-------------------|-------------------|-------------------|-------------------|
-------------------|-------------------|-------------------|-------------------|
-------------------|-------------------|-------------------|-------------------|
-------------------|-------------------|-------------------|-------------------|
-------------------|-------------------|-------------------|-------------------|


  W                   W                 
-------------------|-------------------|
-------------------|-------------------|
-------------------|-------------------|
-------------------|-------------------|
-------------------|-------------------|
-------------------|-------------------|


  As Lonely as Note on the Walls of Jericho ...                 
  Q                                             Q    Q    Q     
---------------------------------------------------------------|
---------------------------------------------------------------|
---------------------------------------------------------------|
---------------------------------------------------------------|
--7---------------------------------------------7--------------|
--5---------------------------------------------5----8----7----|


  Q    Q    Q    Q       Q    Q     Q    Q       Q    Q     Q    Q     
----------------------|-----------------------|-----------------------|
----------------------|-----------------------|-----------------------|
----------------------|-----------------------|-----------------------|
----------------------|-----------------------|-----------------------|
--7----7--------------|--9----9---------------|--9----9---------------|
--5----5----8----5----|--7----7----10----9----|--7----7----10----8----|


  Q    Q    Q    Q       Q    Q    Q    Q       Q    Q     Q    Q     
----------------------|----------------------|-----------------------|
----------------------|----------------------|-----------------------|
----------------------|----------------------|-----------------------|
----------------------|----------------------|-----------------------|
--7----7--------------|--7----7--------------|--9----9---------------|
--5----5----8----7----|--5----5----8----5----|--7----7----10----8----|


  Q    Q     Q    Q       Q    Q    Q    Q       Q    Q    Q    Q     
-----------------------|----------------------|----------------------|
-----------------------|----------------------|----------------------|
-----------------------|----------------------|----------------------|
-----------------------|----------------------|----------------------|
--9----9---------------|----------------------|----------------------|
--7----7----10----8----|----------------------|----------------------|


  Q    Q    Q    Q       Q    Q    Q    Q       Q    Q    Q    Q     
----------------------|----------------------|----------------------|
----------------------|----------------------|----------------------|
----------------------|----------------------|----------------------|
----------------------|----------------------|----------------------|
----------------------|----------------------|----------------------|
----------------------|----------------------|----------------------|


  Q    Q    Q    Q       Q    Q    Q    Q       Q    Q    Q    Q     
----------------------|----------------------|----------------------|
----------------------|----------------------|----------------------|
----------------------|----------------------|----------------------|
----------------------|----------------------|----------------------|
----------------------|----------------------|----------------------|
----------------------|----------------------|----------------------|


  I Proved It ...                                        
  Q               Q    Q    Q       Q    Q    Q    Q     
---------------------------------|----------------------|
---------------------------------|----------------------|
---------------------------------|----------------------|
---------------------------------|----------------------|
--7---------------7--------------|--7----7--------------|
--5---------------5----8----7----|--5----5----8----5----|


  Q    Q     Q    Q       Q    Q     Q    Q       Q    Q    Q    Q     
-----------------------|-----------------------|----------------------|
-----------------------|-----------------------|----------------------|
-----------------------|-----------------------|----------------------|
-----------------------|-----------------------|----------------------|
--9----9---------------|--9----9---------------|--7----7--------------|
--7----7----10----9----|--7----7----10----9----|--5----5----8----7----|


  Q    Q    Q    Q       Q    Q     Q    Q       Q    Q     Q    Q     
----------------------|-----------------------|-----------------------|
----------------------|-----------------------|-----------------------|
----------------------|-----------------------|-----------------------|
----------------------|-----------------------|-----------------------|
--7----7--------------|--9----9---------------|--9----9---------------|
--5----5----8----5----|--7----7----10----8----|--7----7----10----8----|


  Waged through me ...                                        
  Q                    Q    Q    Q       Q    Q    Q    Q     
--------------------------------------|----------------------|
--------------------------------------|----------------------|
--------------------------------------|----------------------|
--------------------------------------|----------------------|
--7--------------------7--------------|--7----7--------------|
--5--------------------5----8----7----|--5----5----8----5----|


  Q    Q     Q    Q       Q    Q     Q    Q       Q    Q    Q    Q     
-----------------------|-----------------------|----------------------|
-----------------------|-----------------------|----------------------|
-----------------------|-----------------------|----------------------|
-----------------------|-----------------------|----------------------|
--9----9---------------|--9----9---------------|--7----7--------------|
--7----7----10----8----|--7----7----10----8----|--5----5----8----7----|


  Q    Q    Q    Q       Q    Q     Q    Q       Q    Q     Q    Q     
----------------------|-----------------------|-----------------------|
----------------------|-----------------------|-----------------------|
----------------------|-----------------------|-----------------------|
----------------------|-----------------------|-----------------------|
--7----7--------------|--9----9---------------|--9----9---------------|
--5----5----8----5----|--7----7----10----8----|--7----7----10----8----|


  H         E   E  E   E     H         E   E  E   E     H        H         
--------------------------|--------------------------|--------------------|
--------------------------|--------------------------|--------------------|
--9--------12--11--9--11--|--9--------12--11--9--11--|--4--------7--------|
--------------------------|--------------------------|--------------------|
--------------------------|--------------------------|--------------------|
--------------------------|--------------------------|--------------------|


   H         H           H         E   E  E   E     H         E   E  E   E   
----------------------|--------------------------|--------------------------|
----------------------|--------------------------|--------------------------|
--10--------14--------|--9--------12--11--9--11--|--9--------12--11--9--11--|
----------------------|--------------------------|--------------------------|
----------------------|--------------------------|--------------------------|
----------------------|--------------------------|--------------------------|


  H        H            H         H            E  E  E   E  E  E   E  E   
--------------------|----------------------|-----------------------------|
--------------------|----------------------|-----------------------------|
--4--------7--------|--10--------14--------|-----------------------------|
--------------------|----------------------|-----------------------------|
--------------------|----------------------|--10--9--0--10--9--0--10--9--|
--------------------|----------------------|-----------------------------|


  E  E  E  E  E  E  E  E      E  E  E   E  E  E   E  E   
--------------------------|-----------------------------|
--------------------------|-----------------------------|
--------------------------|-----------------------------|
--------------------------|-----------------------------|
--0--7--9--0--7--9--0--7--|--10--9--0--10--9--0--10--9--|
--------------------------|-----------------------------|


                             They Call me Bad ...                    
  E  E  E  E  E  E  E  E     Q                    E  E  E  E  E  E   
--------------------------|-----------------------------------------|
--------------------------|-----------------------------------------|
--------------------------|-----------------------------------------|
--------------------------|--9--------------------x--9--9--x--9--x--|
--0--7--9--0--7--9--0--7--|--7--------------------x--7--7--x--7--x--|
--------------------------|-----------------------------------------|


   Q    E   E   E  E   E  E     Q    E  E  E  E  E  E   
-----------------------------|-------------------------|
-----------------------------|-------------------------|
-----------------------------|-------------------------|
--10----x--10--10--x--10--x--|--9----x--9--9--x--9--x--|
---8----x---8---8--x---8--x--|--7----x--7--7--x--7--x--|
-----------------------------|-------------------------|


   Q     E   E   E  E   E  E     Q    E  E  E  E  E  E   
------------------------------|-------------------------|
------------------------------|-------------------------|
------------------------------|-------------------------|
--10----10---x--12--x--10--x--|--9----x--9--9--x--9--x--|
---8-----8---x--10--x---8--x--|--7----x--7--7--x--7--x--|
------------------------------|-------------------------|


   Q    E   E   E  E   E  E     Q    E  E  E  E  E  E   
-----------------------------|-------------------------|
-----------------------------|-------------------------|
-----------------------------|-------------------------|
--10----x--10--10--x--10--x--|--9----x--9--9--x--9--x--|
---8----x---8---8--x---8--x--|--7----x--7--7--x--7--x--|
-----------------------------|-------------------------|


                                 Grown Wild                 
   Q     E   E   E  E   E  E     Q          Q    Q    Q     
------------------------------|----------------------------|
------------------------------|----------------------------|
------------------------------|----------------------------|
--10----10---x--12--x--10--x--|----------------------------|
---8-----8---x--10--x---8--x--|--7----------7--------------|
------------------------------|--5----------5----8----7----|


  Q    Q    Q    Q       Q    Q     Q    Q       Q    Q     Q    Q     
----------------------|-----------------------|-----------------------|
----------------------|-----------------------|-----------------------|
----------------------|-----------------------|-----------------------|
----------------------|-----------------------|-----------------------|
--7----7--------------|--9----9---------------|--9----9---------------|
--5----5----8----5----|--7----7----10----8----|--7----7----10----8----|


  Q    Q    Q    Q       Q    Q    Q    Q       Q    Q     Q    Q     
----------------------|----------------------|-----------------------|
----------------------|----------------------|-----------------------|
----------------------|----------------------|-----------------------|
----------------------|----------------------|-----------------------|
--7----7--------------|--7----7--------------|--9----9---------------|
--5----5----8----7----|--5----5----8----5----|--7----7----10----8----|


  Q    Q     Q    Q       H         E   E  E   E     H         E   E  E   E   
-----------------------|--------------------------|--------------------------|
-----------------------|--------------------------|--------------------------|
-----------------------|--9--------12--11--9--11--|--9--------12--11--9--11--|
-----------------------|--------------------------|--------------------------|
--9----9---------------|--------------------------|--------------------------|
--7----7----10----8----|--------------------------|--------------------------|


  H        H            H         H           H         E   E  E   E   
--------------------|----------------------|--------------------------|
--------------------|----------------------|--------------------------|
--4--------7--------|--10--------14--------|--9--------12--11--9--11--|
--------------------|----------------------|--------------------------|
--------------------|----------------------|--------------------------|
--------------------|----------------------|--------------------------|


  H         E   E  E   E     H        H            H         H         
--------------------------|--------------------|----------------------|
--------------------------|--------------------|----------------------|
--9--------12--11--9--11--|--4--------7--------|--10--------14--------|
--------------------------|--------------------|----------------------|
--------------------------|--------------------|----------------------|
--------------------------|--------------------|----------------------|


   E  E  E   E  E  E   E  E     E  E  E  E  E  E  E  E   
-----------------------------|--------------------------|
-----------------------------|--------------------------|
-----------------------------|--------------------------|
-----------------------------|--------------------------|
--10--9--0--10--9--0--10--9--|--0--7--9--0--7--9--0--7--|
-----------------------------|--------------------------|


   E  E  E   E  E  E   E  E     E  E  E  E  E  E  E  E   
-----------------------------|--------------------------|
-----------------------------|--------------------------|
-----------------------------|--------------------------|
-----------------------------|--------------------------|
--10--9--0--10--9--0--10--9--|--0--7--9--0--7--9--0--7--|
-----------------------------|--------------------------|


  They Call me Bad ...                                                  
  Q                    E  E  E  E  E  E      Q    E   E   E  E   E  E   
-----------------------------------------|-----------------------------|
-----------------------------------------|-----------------------------|
-----------------------------------------|-----------------------------|
--9--------------------x--9--9--x--9--x--|--10----x--10--10--x--10--x--|
--7--------------------x--7--7--x--7--x--|---8----x---8---8--x---8--x--|
-----------------------------------------|-----------------------------|


  Q    E  E  E  E  E  E      Q     E   E   E  E   E  E   
-------------------------|------------------------------|
-------------------------|------------------------------|
-------------------------|------------------------------|
--9----x--9--9--x--9--x--|--10----10---x--12--x--10--x--|
--7----x--7--7--x--7--x--|---8-----8---x--10--x---8--x--|
-------------------------|------------------------------|


  Q    E  E  E  E  E  E      Q    E   E   E  E   E  E   
-------------------------|-----------------------------|
-------------------------|-----------------------------|
-------------------------|-----------------------------|
--9----x--9--9--x--9--x--|--10----x--10--10--x--10--x--|
--7----x--7--7--x--7--x--|---8----x---8---8--x---8--x--|
-------------------------|-----------------------------|


  Q    E  E  E  E  E  E      Q     E   E   E  E   E  E   
-------------------------|------------------------------|
-------------------------|------------------------------|
-------------------------|------------------------------|
--9----x--9--9--x--9--x--|--10----10---x--12--x--10--x--|
--7----x--7--7--x--7--x--|---8-----8---x--10--x---8--x--|
-------------------------|------------------------------|


  Grown Colder ...                                        
  Q                Q    Q    Q       Q    Q    Q    Q     
----------------------------------|----------------------|
----------------------------------|----------------------|
----------------------------------|----------------------|
----------------------------------|----------------------|
--7----------------7--------------|--7----7--------------|
--5----------------5----8----7----|--5----5----8----5----|


  Q    Q     Q    Q       Q    Q     Q    Q       Q    Q    Q    Q     
-----------------------|-----------------------|----------------------|
-----------------------|-----------------------|----------------------|
-----------------------|-----------------------|----------------------|
-----------------------|-----------------------|----------------------|
--9----9---------------|--9----9---------------|--7----7--------------|
--7----7----10----8----|--7----7----10----8----|--5----5----8----7----|


  Q    Q    Q    Q       Q    Q     Q    Q       Q    Q     Q    Q     
----------------------|-----------------------|-----------------------|
----------------------|-----------------------|-----------------------|
----------------------|-----------------------|-----------------------|
----------------------|-----------------------|-----------------------|
--7----7--------------|--9----9---------------|--9----9---------------|
--5----5----8----5----|--7----7----10----8----|--7----7----10----8----|


  S S S S S S S S S S S S S S S S    S S S S S S S S S S S S S S S S  
----------------------------------|----------------------------------|
----------------------------------|----------------------------------|
----------------------------------|----------------------------------|
----------------------------------|----------------------------------|
----------------------------------|----------------------------------|
--5-5-5-5-5-5-5-5-5-5-5-5-5-5-5-5-|--8-8-8-8-8-8-8-8-7-7-7-7-5-5-5-5-|


  S S S S S S S S S S S S S S S S    S S S S S S S S S S S S S S S S  
----------------------------------|----------------------------------|
----------------------------------|----------------------------------|
----------------------------------|----------------------------------|
----------------------------------|----------------------------------|
----------------------------------|--5-5-5-5-5-5-5-3-3-3-3-3-3-2-2-2-|
--7-7-7-7-7-7-7-7-7-7-7-7-7-7-7-7-|----------------------------------|


  S S S S S S S S S S S S S S S S    S S S S S S S S S S S S S S S S  
----------------------------------|----------------------------------|
----------------------------------|----------------------------------|
----------------------------------|----------------------------------|
----------------------------------|----------------------------------|
----------------------------------|----------------------------------|
--5-5-5-5-5-5-5-5-5-5-5-5-5-5-5-5-|--8-8-8-8-8-8-8-8-7-7-7-7-5-5-5-5-|


  S S S S S S S S S S S S S S S S    S S S S S S S S S S S S S S S S            
----------------------------------|----------------------------------|----|----|
----------------------------------|----------------------------------|----|----|
----------------------------------|----------------------------------|----|----|
----------------------------------|----------------------------------|----|----|
----------------------------------|--5-5-5-5-5-5-5-3-3-3-3-3-3-2-2-2-|----|----|
--7-7-7-7-7-7-7-7-7-7-7-7-7-7-7-7-|----------------------------------|----|----|


----|----|----|----|----|----|----|----|----|----|----|----|----|----|
----|----|----|----|----|----|----|----|----|----|----|----|----|----|
----|----|----|----|----|----|----|----|----|----|----|----|----|----|
----|----|----|----|----|----|----|----|----|----|----|----|----|----|
----|----|----|----|----|----|----|----|----|----|----|----|----|----|
----|----|----|----|----|----|----|----|----|----|----|----|----|----|


  Q     E  Q    E  Q       Q     E  Q    E  Q     
------------------------|------------------------|
------------------------|------------------------|
------------------------|------------------------|
------------------------|------------------------|
--7----10--9----7--5----|--7----10--9----7--5----|
------------------------|------------------------|


  The Paitron Saint of Heartache ...                      
  E                                  Q    E  E  E  E  E   
---------------------------------------------------------|
---------------------------------------------------------|
---------------------------------------------------------|
------------------------------------------5--------5-----|
--3----------------------------------3-------3--3-----3--|
---------------------------------------------------------|


  Q    E  Q    E  E  E     Q     E  Q    E  Q     
------------------------|------------------------|
------------------------|------------------------|
------------------------|------------------------|
----------4----------4--|------------------------|
--2----2-------2--2-----|--7----10--9----7--5----|
------------------------|------------------------|


        You Can't See My World is Falling ...              
  Q     E                                    Q    E  Q     
----------------------------------------------------------|
----------------------------------------------------------|
----------------------------------------------------------|
----------------------------------------------------------|
--7----10------------------------------------9----7--5----|
----------------------------------------------------------|


  E  Q    E  E  E  E  E     Q    E  Q    E  E  E     Q     E  Q    E  Q     
-------------------------|------------------------|------------------------|
-------------------------|------------------------|------------------------|
-------------------------|------------------------|------------------------|
----------5--------5-----|----------4----------4--|------------------------|
--3--3-------3--3-----3--|--2----2-------2--2-----|--7----10--9----7--5----|
-------------------------|------------------------|------------------------|


  Q     E  Q    E  Q     
------------------------|
------------------------|
------------------------|
------------------------|
--7----10--9----7--5----|
------------------------|


  The Paitron Saint of Heartache ...                      
  E                                  Q    E  E  E  E  E   
---------------------------------------------------------|
---------------------------------------------------------|
---------------------------------------------------------|
------------------------------------------5--------5-----|
--3----------------------------------3-------3--3-----3--|
---------------------------------------------------------|


  Q    E  Q    E  E  E     Q     E  Q    E  Q     
------------------------|------------------------|
------------------------|------------------------|
------------------------|------------------------|
----------4----------4--|------------------------|
--2----2-------2--2-----|--7----10--9----7--5----|
------------------------|------------------------|


        You Can't See My World is Falling ...              
  Q     E                                    Q    E  Q     
----------------------------------------------------------|
----------------------------------------------------------|
----------------------------------------------------------|
----------------------------------------------------------|
--7----10------------------------------------9----7--5----|
----------------------------------------------------------|


  E  Q    E  E  E  E  E     Q    E  Q    E  E  E     Q     E  Q    E  Q     
-------------------------|------------------------|------------------------|
-------------------------|------------------------|------------------------|
-------------------------|------------------------|------------------------|
----------5--------5-----|----------4----------4--|------------------------|
--3--3-------3--3-----3--|--2----2-------2--2-----|--7----10--9----7--5----|
-------------------------|------------------------|------------------------|


  Q     E  Q    E  Q     
------------------------|
------------------------|
------------------------|
------------------------|
--7----10--9----7--5----|
------------------------|


  The Paitron Saint of Heartache ...                      
  E                                  Q    E  E  E  E  E   
---------------------------------------------------------|
---------------------------------------------------------|
---------------------------------------------------------|
------------------------------------------5--------5-----|
--3----------------------------------3-------3--3-----3--|
---------------------------------------------------------|


  Q    E  Q    E  E  E     Q     E  Q    E  Q       Q     E  Q    E  Q     
------------------------|------------------------|------------------------|
------------------------|------------------------|------------------------|
------------------------|------------------------|------------------------|
----------4----------4--|------------------------|------------------------|
--2----2-------2--2-----|--7----10--9----7--5----|--7----10--9----7--5----|
------------------------|------------------------|------------------------|


  E  Q    E  E  E  E  E     Q    E  Q    E  E  E     E  E  E  E  E  E  E  E   
-------------------------|------------------------|--------------------------|
-------------------------|------------------------|--------------------------|
-------------------------|------------------------|--------------------------|
----------5--------5-----|----------4----------4--|--------------------------|
--3--3-------3--3-----3--|--2----2-------2--2-----|--2--4--5--2--8--7--4--5--|
-------------------------|------------------------|--0--2--3--0--6--5--2--3--|


  They Call me Bad ...                                                  
  Q                    E  E  E  E  E  E      Q    E   E   E  E   E  E   
-----------------------------------------|-----------------------------|
-----------------------------------------|-----------------------------|
-----------------------------------------|-----------------------------|
--9--------------------x--9--9--x--9--x--|--10----x--10--10--x--10--x--|
--7--------------------x--7--7--x--7--x--|---8----x---8---8--x---8--x--|
-----------------------------------------|-----------------------------|


  Q    E  E  E  E  E  E      Q     E   E   E  E   E  E   
-------------------------|------------------------------|
-------------------------|------------------------------|
-------------------------|------------------------------|
--9----x--9--9--x--9--x--|--10----10---x--12--x--10--x--|
--7----x--7--7--x--7--x--|---8-----8---x--10--x---8--x--|
-------------------------|------------------------------|


  Q    E  E  E  E  E  E      Q    E   E   E  E   E  E   
-------------------------|-----------------------------|
-------------------------|-----------------------------|
-------------------------|-----------------------------|
--9----x--9--9--x--9--x--|--10----x--10--10--x--10--x--|
--7----x--7--7--x--7--x--|---8----x---8---8--x---8--x--|
-------------------------|-----------------------------|


  Q    E  E  E  E  E  E      Q     E   E   E  E   E  E   
-------------------------|------------------------------|
-------------------------|------------------------------|
-------------------------|------------------------------|
--9----x--9--9--x--9--x--|--10----10---x--12--x--10--x--|
--7----x--7--7--x--7--x--|---8-----8---x--10--x---8--x--|
-------------------------|------------------------------|


  They Call me Bad ...                                                  
  Q                    E  E  E  E  E  E      Q    E   E   E  E   E  E   
-----------------------------------------|-----------------------------|
-----------------------------------------|-----------------------------|
-----------------------------------------|-----------------------------|
--9--------------------x--9--9--x--9--x--|--10----x--10--10--x--10--x--|
--7--------------------x--7--7--x--7--x--|---8----x---8---8--x---8--x--|
-----------------------------------------|-----------------------------|


  Q    E  E  E  E  E  E      Q     E   E   E  E   E  E   
-------------------------|------------------------------|
-------------------------|------------------------------|
-------------------------|------------------------------|
--9----x--9--9--x--9--x--|--10----10---x--12--x--10--x--|
--7----x--7--7--x--7--x--|---8-----8---x--10--x---8--x--|
-------------------------|------------------------------|


  Q    E  E  E  E  E  E      Q    E   E   E  E   E  E   
-------------------------|-----------------------------|
-------------------------|-----------------------------|
-------------------------|-----------------------------|
--9----x--9--9--x--9--x--|--10----x--10--10--x--10--x--|
--7----x--7--7--x--7--x--|---8----x---8---8--x---8--x--|
-------------------------|-----------------------------|


  Q    E  E  E  E  E  E      Q     E   E   E  E   E  E     Q    Q    Q    Q     
-------------------------|------------------------------|----------------------|
-------------------------|------------------------------|----------------------|
-------------------------|------------------------------|----------------------|
--9----x--9--9--x--9--x--|--10----10---x--12--x--10--x--|----------------------|
--7----x--7--7--x--7--x--|---8-----8---x--10--x---8--x--|------------5----3----|
-------------------------|------------------------------|--0---------3----1----|


  Q    Q    S S S S S S S S        
----------------------------|----||
----------------------------|----||
----------------------------|----||
----------------------------|----||
--2----2----2-2-2-2---------|----||
--0----0----0-0-0-0---------|----||



                                I Am The Thorn                                  



      W                   H        H           W                 
C ||-------------------|--------------------|-------------------|
G ||-------------------|--------------------|-------------------|
D#||-------------------|--4--------5--------|-------------------|
A#||--2----------------|--4--------5--------|--2----------------|
F ||--2----------------|--2--------3--------|--2----------------|
C ||--0----------------|--------------------|--0----------------|


  H        E  E  E  E     W                   H        H         
-----------------------|-------------------|--------------------|
-----------------------|-------------------|--------------------|
-----------------------|-------------------|--4--------5--------|
--5--------4--5--4--L--|--2----------------|--4--------5--------|
--5--------4--5--4--L--|--2----------------|--2--------3--------|
--3--------2--3--2--L--|--0----------------|--------------------|


  W                   H        E   E   E   E   
-------------------|--------------------------|
-------------------|--------------------------|
-------------------|--------------------------|
--2----------------|--5--------8S--7S--5S--4--|
--2----------------|--5--------8S--7S--5S--4--|
--0----------------|--3--------6S--5S--3S--2--|


  T T T T T T T T T T T T E  S S S S S S S S  
---------------------------------------------|
---------------------------------------------|
---------------------------------------------|
---------------------------------------------|
--5-----------5---------5-L------------------|
--3-3-3-3-3-3-3-3-3-3-3-3-L--0-2-3-5-3-2-3-L-|


  T T T T T T T T T T T T E  S S S S S S S S  
---------------------------------------------|
---------------------------------------------|
---------------------------------------------|
-------------------------------------3---3---|
--2-----------2---------2----4-5-4-2-1-L-1-L-|
--0-0-0-0-0-0-0-0-0-0-0-0-L--2-3-2-0---------|


  T T T T T T T T T T T T E  S S S S S S S S  
---------------------------------------------|
---------------------------------------------|
---------------------------------------------|
---------------------------------------------|
--5-----------5---------5-L------------------|
--3-3-3-3-3-3-3-3-3-3-3-3-L--0-2-3-5-3-2-3-L-|


  T T T T T T T T T T T T E  E   E   E   E   
--------------------------------------------|
--------------------------------------------|
--------------------------------------------|
--------------------------------------------|
--2-----------2---------2----8S--7S--5S--4--|
--0-0-0-0-0-0-0-0-0-0-0-0-L--6S--5S--3S--2--|


  T T T T T T T T T T T T E  S S S S S S S S  
---------------------------------------------|
---------------------------------------------|
---------------------------------------------|
---------------------------------------------|
--5-----------5---------5-L------------------|
--3-3-3-3-3-3-3-3-3-3-3-3-L--0-2-3-5-3-2-3-L-|


  T T T T T T T T T T T T E  S S S S S S S S  
---------------------------------------------|
---------------------------------------------|
---------------------------------------------|
-------------------------------------3---3---|
--2-----------2---------2----4-5-4-2-1-L-1-L-|
--0-0-0-0-0-0-0-0-0-0-0-0-L--2-3-2-0---------|


  T T T T T T T T T T T T E  S S S S S S S S  
---------------------------------------------|
---------------------------------------------|
---------------------------------------------|
---------------------------------------------|
--5-----------5---------5-L------------------|
--3-3-3-3-3-3-3-3-3-3-3-3-L--0-2-3-5-3-2-3-L-|


  T T T T T T T T T T T T E  E   E   E   E   
--------------------------------------------|
--------------------------------------------|
--------------------------------------------|
--------------------------------------------|
--2-----------2---------2----8S--7S--5S--4--|
--0-0-0-0-0-0-0-0-0-0-0-0-L--6S--5S--3S--2--|


  T T T T T T T T T T T T E  S S S S S S S S  
---------------------------------------------|
---------------------------------------------|
---------------------------------------------|
---------------------------------------------|
--5-----------5---------5-L------------------|
--3-3-3-3-3-3-3-3-3-3-3-3-L--0-2-3-5-3-2-3-L-|


  T T T T T T T T T T T T E  S S S S S S S S  
---------------------------------------------|
---------------------------------------------|
---------------------------------------------|
-------------------------------------3---3---|
--2-----------2---------2----4-5-4-2-1-L-1-L-|
--0-0-0-0-0-0-0-0-0-0-0-0-L--2-3-2-0---------|


  T T T T T T T T T T T T E  S S S S S S S S  
---------------------------------------------|
---------------------------------------------|
---------------------------------------------|
---------------------------------------------|
--5-----------5---------5-L------------------|
--3-3-3-3-3-3-3-3-3-3-3-3-L--0-2-3-5-3-2-3-L-|


  T T T T T T T T T T T T E  E   E   E   E   
--------------------------------------------|
--------------------------------------------|
--------------------------------------------|
--------------------------------------------|
--2-----------2---------2----8S--7S--5S--4--|
--0-0-0-0-0-0-0-0-0-0-0-0-L--6S--5S--3S--2--|


  T T T T T T T T T T T T E  S S S S S S S S  
---------------------------------------------|
---------------------------------------------|
---------------------------------------------|
---------------------------------------------|
--5-----------5---------5-L------------------|
--3-3-3-3-3-3-3-3-3-3-3-3-L--0-2-3-5-3-2-3-L-|


  T T T T T T T T T T T T E  S S S S S S S S  
---------------------------------------------|
---------------------------------------------|
---------------------------------------------|
-------------------------------------3---3---|
--2-----------2---------2----4-5-4-2-1-L-1-L-|
--0-0-0-0-0-0-0-0-0-0-0-0-L--2-3-2-0---------|


  T T T T T T T T T T T T E  S S S S S S S S  
---------------------------------------------|
---------------------------------------------|
---------------------------------------------|
---------------------------------------------|
--5-----------5---------5-L------------------|
--3-3-3-3-3-3-3-3-3-3-3-3-L--0-2-3-5-3-2-3-L-|


  T T T T T T T T T T T T E  E   E   E   E     W                 
--------------------------------------------|-------------------|
--------------------------------------------|-------------------|
--------------------------------------------|-------------------|
--------------------------------------------|--2----------------|
--2-----------2---------2----8S--7S--5S--4--|--2----------------|
--0-0-0-0-0-0-0-0-0-0-0-0-L--6S--5S--3S--2--|--0----------------|


  E   E  E  E  S S S S S S S S    W                 
-------------------------------|-------------------|
-------------------------------|-------------------|
--7S--6--L--L------------------|-------------------|
--7S--6--L--L--6-7-6-6-9---9---|--2----------------|
--5S--4--L--L--4-5-4-4-7-L-7-L-|--2----------------|
-------------------------------|--0----------------|


  E   E  E  E  S S S S S S S S    W                 
-------------------------------|-------------------|
-------------------------------|-------------------|
--7S--6--L--L------------------|-------------------|
--7S--6--L--L------------------|--2----------------|
--5S--4--L--L--8-L-7-L-5-5-4-L-|--2----------------|
---------------6-L-5-L-3-3-2-L-|--0----------------|


  E   E  E  E  S S S S S S S S    W                 
-------------------------------|-------------------|
-------------------------------|-------------------|
--7S--6--L--L------------------|-------------------|
--7S--6--L--L--6-7-6-6-9---9---|--2----------------|
--5S--4--L--L--4-5-4-4-7-L-7-L-|--2----------------|
-------------------------------|--0----------------|


  E   E  E  E  S S S S S S S S    E  S S E  S S E  S S E  S S  
-------------------------------|------------------------------|
-------------------------------|------------------------------|
--7S--6--L--L------------------|------------------------------|
--7S--6--L--L------------------|------------------------------|
--5S--4--L--L--8-L-7-L-5-5-4-L-|-----5-6-3--5-6-1--5-6-0--5-6-|
---------------6-L-5-L-3-3-2-L-|--3---------------------------|


  E  S S E  S S S S S S S S S S    E  S S E  S S E  S S E  S S  
--------------------------------|------------------------------|
--------------------------------|------------------------------|
--------------------------------|------------------------------|
--------------------------------|------------------------------|
-----5-6-3--5-6-8-6-5-6-8-6-5-6-|-----5-6-3--5-6-1--5-6-0--5-6-|
--3-----------------------------|--3---------------------------|


  E  S S E  S S S S S S S S S S     W                    H        H         
--------------------------------|--------------------|---------------------|
--------------------------------|--------------------|---------------------|
--------------------------------|--11----------------|--10--------8--------|
--------------------------------|--------------------|---------------------|
-----5-6-3--5-6-8-6-5-6-8-6-5-6-|--------------------|---------------------|
--3-----------------------------|--------------------|---------------------|


   W                    W                    W                 
--------------------|--------------------|--------------------|
--------------------|--------------------|--------------------|
--10----------------|--11----------------|--11----------------|
--------------------|--------------------|--------------------|
--------------------|--------------------|--------------------|
--------------------|--------------------|--------------------|


  H        H           W                   W                 
--------------------|-------------------|-------------------|
--------------------|-------------------|-------------------|
--8-----------------|-------------------|-------------------|
-----------8--------|--7----------------|--8----------------|
--------------------|-------------------|-------------------|
--------------------|-------------------|-------------------|


   W                    H        H            W                 
--------------------|---------------------|--------------------|
--------------------|---------------------|--------------------|
--11----------------|--10--------8--------|--10----------------|
--------------------|---------------------|--------------------|
--------------------|---------------------|--------------------|
--------------------|---------------------|--------------------|


   W                    W                   H        H         
--------------------|--------------------|--------------------|
--------------------|--------------------|--------------------|
--11----------------|--11----------------|--8-----------------|
--------------------|--------------------|-----------8--------|
--------------------|--------------------|--------------------|
--------------------|--------------------|--------------------|


  W                   E   E  E  E   E  E  E  E   
-------------------|----------------------------|
-------------------|----------------------------|
-------------------|----------------------------|
--7----------------|----------------------------|
-------------------|--8S--8--L--8S--7--L--4--L--|
-------------------|--6S--6--L--6S--5--L--2--L--|


  T T T T T T T T T T T T E  S S S S S S S S  
---------------------------------------------|
---------------------------------------------|
---------------------------------------------|
---------------------------------------------|
--5-----------5---------5-L------------------|
--3-3-3-3-3-3-3-3-3-3-3-3-L--0-2-3-5-3-2-3-L-|


  T T T T T T T T T T T T E  S S S S S S S S  
---------------------------------------------|
---------------------------------------------|
---------------------------------------------|
-------------------------------------3---3---|
--2-----------2---------2----4-5-4-2-1-L-1-L-|
--0-0-0-0-0-0-0-0-0-0-0-0-L--2-3-2-0---------|


  T T T T T T T T T T T T E  S S S S S S S S  
---------------------------------------------|
---------------------------------------------|
---------------------------------------------|
---------------------------------------------|
--5-----------5---------5-L------------------|
--3-3-3-3-3-3-3-3-3-3-3-3-L--0-2-3-5-3-2-3-L-|


  T T T T T T T T T T T T E  E   E   E   E   
--------------------------------------------|
--------------------------------------------|
--------------------------------------------|
--------------------------------------------|
--2-----------2---------2----8S--7S--5S--4--|
--0-0-0-0-0-0-0-0-0-0-0-0-L--6S--5S--3S--2--|


  T T T T T T T T T T T T E  S S S S S S S S  
---------------------------------------------|
---------------------------------------------|
---------------------------------------------|
---------------------------------------------|
--5-----------5---------5-L------------------|
--3-3-3-3-3-3-3-3-3-3-3-3-L--0-2-3-5-3-2-3-L-|


  T T T T T T T T T T T T E  S S S S S S S S  
---------------------------------------------|
---------------------------------------------|
---------------------------------------------|
-------------------------------------3---3---|
--2-----------2---------2----4-5-4-2-1-L-1-L-|
--0-0-0-0-0-0-0-0-0-0-0-0-L--2-3-2-0---------|


  T T T T T T T T T T T T E  S S S S S S S S  
---------------------------------------------|
---------------------------------------------|
---------------------------------------------|
---------------------------------------------|
--5-----------5---------5-L------------------|
--3-3-3-3-3-3-3-3-3-3-3-3-L--0-2-3-5-3-2-3-L-|


  T T T T T T T T T T T T E  E   E   E   E     W                 
--------------------------------------------|-------------------|
--------------------------------------------|-------------------|
--------------------------------------------|-------------------|
--------------------------------------------|--2----------------|
--2-----------2---------2----8S--7S--5S--4--|--2----------------|
--0-0-0-0-0-0-0-0-0-0-0-0-L--6S--5S--3S--2--|--0----------------|


  E   E  E  E  S S S S S S S S    W                 
-------------------------------|-------------------|
-------------------------------|-------------------|
--7S--6--L--L------------------|-------------------|
--7S--6--L--L--6-7-6-6-9---9---|--2----------------|
--5S--4--L--L--4-5-4-4-7-L-7-L-|--2----------------|
-------------------------------|--0----------------|


  E   E  E  E  S S S S S S S S    W                 
-------------------------------|-------------------|
-------------------------------|-------------------|
--7S--6--L--L------------------|-------------------|
--7S--6--L--L------------------|--2----------------|
--5S--4--L--L--8-L-7-L-5-5-4-L-|--2----------------|
---------------6-L-5-L-3-3-2-L-|--0----------------|


  E   E  E  E  S S S S S S S S    W                 
-------------------------------|-------------------|
-------------------------------|-------------------|
--7S--6--L--L------------------|-------------------|
--7S--6--L--L--6-7-6-6-9---9---|--2----------------|
--5S--4--L--L--4-5-4-4-7-L-7-L-|--2----------------|
-------------------------------|--0----------------|


  E   E  E  E  S S S S S S S S    E  S S E  S S E  S S E  S S  
-------------------------------|------------------------------|
-------------------------------|------------------------------|
--7S--6--L--L------------------|------------------------------|
--7S--6--L--L------------------|------------------------------|
--5S--4--L--L--8-L-7-L-5-5-4-L-|-----5-6-3--5-6-1--5-6-0--5-6-|
---------------6-L-5-L-3-3-2-L-|--3---------------------------|


  E  S S E  S S S S S S S S S S    E  S S E  S S E  S S E  S S  
--------------------------------|------------------------------|
--------------------------------|------------------------------|
--------------------------------|------------------------------|
--------------------------------|------------------------------|
-----5-6-3--5-6-8-6-5-6-8-6-5-6-|-----5-6-3--5-6-1--5-6-0--5-6-|
--3-----------------------------|--3---------------------------|


  E  S S E  S S S S S S S S S S     W                    H        H         
--------------------------------|--------------------|---------------------|
--------------------------------|--------------------|---------------------|
--------------------------------|--11----------------|--10--------8--------|
--------------------------------|--------------------|---------------------|
-----5-6-3--5-6-8-6-5-6-8-6-5-6-|--------------------|---------------------|
--3-----------------------------|--------------------|---------------------|


   W                    W                    W                 
--------------------|--------------------|--------------------|
--------------------|--------------------|--------------------|
--10----------------|--11----------------|--11----------------|
--------------------|--------------------|--------------------|
--------------------|--------------------|--------------------|
--------------------|--------------------|--------------------|


  H        H           W                   W                 
--------------------|-------------------|-------------------|
--------------------|-------------------|-------------------|
--8-----------------|-------------------|-------------------|
-----------8--------|--7----------------|--8----------------|
--------------------|-------------------|-------------------|
--------------------|-------------------|-------------------|


   W                    H        H            W                 
--------------------|---------------------|--------------------|
--------------------|---------------------|--------------------|
--11----------------|--10--------8--------|--10----------------|
--------------------|---------------------|--------------------|
--------------------|---------------------|--------------------|
--------------------|---------------------|--------------------|


   W                    W                   H        H         
--------------------|--------------------|--------------------|
--------------------|--------------------|--------------------|
--11----------------|--11----------------|--8-----------------|
--------------------|--------------------|-----------8--------|
--------------------|--------------------|--------------------|
--------------------|--------------------|--------------------|


  W                   E  E  E  E  H                   E  E  E  E  E  E  E  E   
-------------------|-----------------------|-------|--------------------------|
-------------------|-----------------------|-------|--------------------------|
-------------------|-----------------------|-------|--------------------------|
--7----------------|--3--4--3--------------|-------|--2--5--4--L--2--5--4--L--|
-------------------|--3--4--3--------------|-------|--2--5--4--L--2--5--4--L--|
-------------------|--1--2--1--------------|-------|--0--3--2--L--0--3--2--L--|


  E  E  E  E  E  E  E  E     E  E  E  E  E  E  E  E   
--------------------------|--------------------------|
--------------------------|--------------------------|
--------------------------|--------------------------|
--3--6--5--L--3--6--3--5--|--2--5--4--L--2--5--4--L--|
--3--6--5--L--3--6--3--5--|--2--5--4--L--2--5--4--L--|
--1--4--3--L--1--4--1--3--|--0--3--2--L--0--3--2--L--|


                             PM   PM   PM   PM                               
  E  E  E  E  E  E  E  E     Q    Q    Q    Q       E  E  E  E  E  E  E  E   
--------------------------|----------------------|--------------------------|
--------------------------|----------------------|--------------------------|
--------------------------|--9----9----9----9----|--------------------------|
--3--6--5--L--3--6--3--5--|----------------------|--2--5--4--L--2--5--4--L--|
--3--6--5--L--3--6--3--5--|----------------------|--2--5--4--L--2--5--4--L--|
--1--4--3--L--1--4--1--3--|----------------------|--0--3--2--L--0--3--2--L--|


  E  E  E  E  E  E  E  E     E  E  E  E  E  E  E  E   
--------------------------|--------------------------|
--------------------------|--------------------------|
--------------------------|--------------------------|
--3--6--5--L--3--6--3--5--|--2--5--4--L--2--5--4--L--|
--3--6--5--L--3--6--3--5--|--2--5--4--L--2--5--4--L--|
--1--4--3--L--1--4--1--3--|--0--3--2--L--0--3--2--L--|


  E  E  E  E  E  E  E  E     S S S S S S S S S S S S S S S S  
--------------------------|----------------------------------|
--------------------------|----------------------------------|
--------------------------|----------------------------------|
--3--6--5--L--3--6--3--5--|----------------------------------|
--3--6--5--L--3--6--3--5--|----------------------------------|
--1--4--3--L--1--4--1--3--|--5-5-5-5-5-5-8-8-8-8-8-8-7-7-7-7-|


  S S S S S S S S S S S S S S S S    S S S S S S S S S S S S S S S S  
----------------------------------|----------------------------------|
----------------------------------|----------------------------------|
----------------------------------|----------------------------------|
----------------------------------|----------------------------------|
----------------------------------|----------------------6-6-6-6-6-6-|
--7-7-6-6-6-6-6-6-5-5-5-5-5-5-8-8-|--8-8-8-8-7-7-7-7-7-7-------------|


  S S S S S S S S S S S S S S S S    S S S S S S S S S S S S S S S S  
----------------------------------|----------------------------------|
----------------------------------|----------------------------------|
----------------------------------|----------------------------------|
----------------------------------|----------------------------------|
----------------------------------|----------------------------------|
--5-5-5-5-5-5-8-8-8-8-8-8-7-7-7-7-|--7-7-6-6-6-6-6-6-5-5-5-5-5-5-8-8-|


  S S S S S S S S S S S S S S S S    E  E  E  E  E  E  E  E   
----------------------------------|--------------------------|
----------------------------------|--------------------------|
----------------------------------|--------------------------|
----------------------8-7-8-----L-|--2--5--4--L--2--5--4--L--|
----------------------6-5-6-L-L-L-|--2--5--4--L--2--5--4--L--|
--8-8-8-8-7-7-7-7-7-7-------------|--0--3--2--L--0--3--2--L--|


  E  E  E  E  E  E  E  E     E  E  E  E  E  E  E  E   
--------------------------|--------------------------|
--------------------------|--------------------------|
--------------------------|--------------------------|
--3--6--5--L--3--6--3--5--|--2--5--4--L--2--5--4--L--|
--3--6--5--L--3--6--3--5--|--2--5--4--L--2--5--4--L--|
--1--4--3--L--1--4--1--3--|--0--3--2--L--0--3--2--L--|


  E  E  E  E  E  E  E  E     W                   H        H         
--------------------------|-------------------|--------------------|
--------------------------|-------------------|--------------------|
--------------------------|-------------------|--------------------|
--3--6--5--L--3--6--3--5--|--2----------------|--8--------5--------|
--3--6--5--L--3--6--3--5--|--2----------------|--8--------5--------|
--1--4--3--L--1--4--1--3--|--0----------------|--6--------3--------|


  W                   H        Q    Q       W                 
-------------------|---------------------|-------------------|
-------------------|---------------------|-------------------|
-------------------|---------------------|-------------------|
--2----------------|--8--------5----8----|--2----------------|
--2----------------|--8--------5----8----|--2----------------|
--0----------------|--6--------3----6----|--0----------------|


  H        H           W                   H        Q    Q     
--------------------|-------------------|---------------------|
--------------------|-------------------|---------------------|
--------------------|-------------------|---------------------|
--8--------5--------|--2----------------|--8--------5----8----|
--8--------5--------|--2----------------|--8--------5----8----|
--6--------3--------|--0----------------|--6--------3----6----|


  W                   H        H           W                 
-------------------|--------------------|-------------------|
-------------------|--------------------|-------------------|
-------------------|--------------------|-------------------|
--2----------------|--8--------5--------|--2----------------|
--2----------------|--8--------5--------|--2----------------|
--0----------------|--6--------3--------|--0----------------|


                        PM    PM    PM    PM                          
  H        Q    Q       E  E  E  E  E  E  E  E     H        H         
---------------------|--------------------------|--------------------|
---------------------|--------------------------|--------------------|
---------------------|-----9-----9-----9-----9--|--------------------|
--8--------5----8----|-----9-----9-----9-----9--|--8--------5--------|
--8--------5----8----|-----7-----7-----7-----7--|--8--------5--------|
--6--------3----6----|--0-----0-----0-----0-----|--6--------3--------|


  PM    PM    PM    PM                             PM    PM    PM    PM     
  E  E  E  E  E  E  E  E     H        Q    Q       E  E  E  E  E  E  E  E   
--------------------------|---------------------|--------------------------|
--------------------------|---------------------|--------------------------|
-----9-----9-----9-----9--|---------------------|-----9-----9-----9-----9--|
-----9-----9-----9-----9--|--8--------5----8----|-----9-----9-----9-----9--|
-----7-----7-----7-----7--|--8--------5----8----|-----7-----7-----7-----7--|
--0-----0-----0-----0-----|--6--------3----6----|--0-----0-----0-----0-----|


                       PM    PM    PM    PM                           
  H        H           E  E  E  E  E  E  E  E     H        Q    Q     
--------------------|--------------------------|---------------------|
--------------------|--------------------------|---------------------|
--------------------|-----9-----9-----9-----9--|---------------------|
--8--------5--------|-----9-----9-----9-----9--|--8--------5----8----|
--8--------5--------|-----7-----7-----7-----7--|--8--------5----8----|
--6--------3--------|--0-----0-----0-----0-----|--6--------3----6----|


  T T T T T T T T T T T T E  S S S S S S S  S  
----------------------------------------------|
----------------------------------------------|
----------------------------------------------|
-------------------------------------8-7-8-10-|
--7-----------7---------7-L--7---7------------|
--5-5-5-5-5-5-5-5-5-5-5-5-L--5-L-5-L----------|


  T T T T T T T T T T T T E  S S S S S S S  S  
----------------------------------------------|
----------------------------------------------|
----------------------------------------------|
-------------------------------------8-7-8-10-|
--7-----------7---------7-L--7---7------------|
--5-5-5-5-5-5-5-5-5-5-5-5-L--5-L-5-L----------|


  T T T T T T T T T T T T E  S S S S S S S  S  
----------------------------------------------|
----------------------------------------------|
----------------------------------------------|
-------------------------------------8-7-8-10-|
--7-----------7---------7-L--7---7------------|
--5-5-5-5-5-5-5-5-5-5-5-5-L--5-L-5-L----------|


  T T T T T T T T T T T T E  S S S S S S S S  
---------------------------------------------|
---------------------------------------------|
---------------------------------------------|
-------------------------------------7-5-7-8-|
--7-----------7---------7-L--5---5-----------|
--5-5-5-5-5-5-5-5-5-5-5-5-L--3-L-3-L---------|


  T T T T T T T T T T T T E  S S S S S S S  S  
----------------------------------------------|
----------------------------------------------|
----------------------------------------------|
-------------------------------------8-7-8-10-|
--7-----------7---------7-L--7---7------------|
--5-5-5-5-5-5-5-5-5-5-5-5-L--5-L-5-L----------|


  T T T T T T T T T T T T E  S S S S S S S S  
---------------------------------------------|
---------------------------------------------|
---------------------------------------------|
-------------------------------------7-5-7-8-|
--7-----------7---------7-L--5---5-----------|
--5-5-5-5-5-5-5-5-5-5-5-5-L--3-L-3-L---------|


                                               PM           
  S S S S S S S S S S S S  S S S S    H        E  E  E  E   
-----------------------------------|-----------------------|
-----------------------------------|-----------------------|
-----------------------------------|-----------4-----------|
--7-5-7-8-7-5-7-8-7-5-7-8-10-8-7-8-|--5--------4-----6--5--|
-----------------------------------|--5--------2-----6--5--|
-----------------------------------|--3--------------4--3--|


  Solo                                           
  T    T T T T T T T T T T T E  S S S S S S S S  
------------------------------------------------|
------------------------------------------------|
------------------------------------------------|
------------------------------------------------|
--5--------------5---------5-L------------------|
--3----3-3-3-3-3-3-3-3-3-3-3-L--0-2-3-5-3-2-3-L-|


  T T T T T T T T T T T T E  S S S S S S S S  
---------------------------------------------|
---------------------------------------------|
---------------------------------------------|
-------------------------------------3---3---|
--2-----------2---------2----4-5-4-2-1-L-1-L-|
--0-0-0-0-0-0-0-0-0-0-0-0-L--2-3-2-0---------|


  T T T T T T T T T T T T E  S S S S S S S S  
---------------------------------------------|
---------------------------------------------|
---------------------------------------------|
---------------------------------------------|
--5-----------5---------5-L------------------|
--3-3-3-3-3-3-3-3-3-3-3-3-L--0-2-3-5-3-2-3-L-|


  T T T T T T T T T T T T E  E   E   E   E   
--------------------------------------------|
--------------------------------------------|
--------------------------------------------|
--------------------------------------------|
--2-----------2---------2----8S--7S--5S--4--|
--0-0-0-0-0-0-0-0-0-0-0-0-L--6S--5S--3S--2--|


  T T T T T T T T T T T T E  S S S S S S S S  
---------------------------------------------|
---------------------------------------------|
---------------------------------------------|
---------------------------------------------|
--5-----------5---------5-L------------------|
--3-3-3-3-3-3-3-3-3-3-3-3-L--0-2-3-5-3-2-3-L-|


  T T T T T T T T T T T T E  S S S S S S S S  
---------------------------------------------|
---------------------------------------------|
---------------------------------------------|
-------------------------------------3---3---|
--2-----------2---------2----4-5-4-2-1-L-1-L-|
--0-0-0-0-0-0-0-0-0-0-0-0-L--2-3-2-0---------|


  T T T T T T T T T T T T E  S S S S S S S S  
---------------------------------------------|
---------------------------------------------|
---------------------------------------------|
---------------------------------------------|
--5-----------5---------5-L------------------|
--3-3-3-3-3-3-3-3-3-3-3-3-L--0-2-3-5-3-2-3-L-|


  T T T T T T T T T T T T E  E   E   E   E     W                 
--------------------------------------------|-------------------|
--------------------------------------------|-------------------|
--------------------------------------------|-------------------|
--------------------------------------------|--2----------------|
--2-----------2---------2----8S--7S--5S--4--|--2----------------|
--0-0-0-0-0-0-0-0-0-0-0-0-L--6S--5S--3S--2--|--0----------------|


  E   E  E  E  S S S S S S S S    W                 
-------------------------------|-------------------|
-------------------------------|-------------------|
--7S--6--L--L------------------|-------------------|
--7S--6--L--L--6-7-6-6-9---9---|--2----------------|
--5S--4--L--L--4-5-4-4-7-L-7-L-|--2----------------|
-------------------------------|--0----------------|


  E   E  E  E  S S S S S S S S    W                 
-------------------------------|-------------------|
-------------------------------|-------------------|
--7S--6--L--L------------------|-------------------|
--7S--6--L--L------------------|--2----------------|
--5S--4--L--L--8-L-7-L-5-5-4-L-|--2----------------|
---------------6-L-5-L-3-3-2-L-|--0----------------|


  E   E  E  E  S S S S S S S S    W                 
-------------------------------|-------------------|
-------------------------------|-------------------|
--7S--6--L--L------------------|-------------------|
--7S--6--L--L--6-7-6-6-9---9---|--2----------------|
--5S--4--L--L--4-5-4-4-7-L-7-L-|--2----------------|
-------------------------------|--0----------------|


  E   E  E  E  S S S S S S S S     W                    H        H         
-------------------------------|--------------------|---------------------|
-------------------------------|--------------------|---------------------|
--7S--6--L--L------------------|--11----------------|--10--------8--------|
--7S--6--L--L------------------|--------------------|---------------------|
--5S--4--L--L--8-L-7-L-5-5-4-L-|--------------------|---------------------|
---------------6-L-5-L-3-3-2-L-|--------------------|---------------------|


   W                    W                    W                 
--------------------|--------------------|--------------------|
--------------------|--------------------|--------------------|
--10----------------|--11----------------|--11----------------|
--------------------|--------------------|--------------------|
--------------------|--------------------|--------------------|
--------------------|--------------------|--------------------|


  H        H           W                   W                 
--------------------|-------------------|-------------------|
--------------------|-------------------|-------------------|
--8-----------------|-------------------|-------------------|
-----------8--------|--7----------------|--8----------------|
--------------------|-------------------|-------------------|
--------------------|-------------------|-------------------|


   W                    H        H            W                 
--------------------|---------------------|--------------------|
--------------------|---------------------|--------------------|
--11----------------|--10--------8--------|--10----------------|
--------------------|---------------------|--------------------|
--------------------|---------------------|--------------------|
--------------------|---------------------|--------------------|


   W                    W                   H        H         
--------------------|--------------------|--------------------|
--------------------|--------------------|--------------------|
--11----------------|--11----------------|--8-----------------|
--------------------|--------------------|-----------8--------|
--------------------|--------------------|--------------------|
--------------------|--------------------|--------------------|


                      PM PM PM PM PM PM PM PM                             
  W                   E  E  E  E  E  E  E  E     E  E  E  E  E  E  E  E   
-------------------|--------------------------|--------------------------|
-------------------|--------------------------|--------------------------|
-------------------|--9--9--9--9--9--9--9--9--|--------------------------|
--7----------------|--------------------------|--2--5--4--L--2--5--4--L--|
-------------------|--------------------------|--2--5--4--L--2--5--4--L--|
-------------------|--------------------------|--0--3--2--L--0--3--2--L--|


  E  E  E  E  E  E  E  E     E  E  E  E  E  E  E  E   
--------------------------|--------------------------|
--------------------------|--------------------------|
--------------------------|--------------------------|
--3--6--5--L--3--6--3--5--|--2--5--4--L--2--5--4--L--|
--3--6--5--L--3--6--3--5--|--2--5--4--L--2--5--4--L--|
--1--4--3--L--1--4--1--3--|--0--3--2--L--0--3--2--L--|


                             PM   PM   PM   PM                               
  E  E  E  E  E  E  E  E     Q    Q    Q    Q       E  E  E  E  E  E  E  E   
--------------------------|----------------------|--------------------------|
--------------------------|----------------------|--------------------------|
--------------------------|--9----9----9----9----|--------------------------|
--3--6--5--L--3--6--3--5--|----------------------|--2--5--4--L--2--5--4--L--|
--3--6--5--L--3--6--3--5--|----------------------|--2--5--4--L--2--5--4--L--|
--1--4--3--L--1--4--1--3--|----------------------|--0--3--2--L--0--3--2--L--|


  E  E  E  E  E  E  E  E     E  E  E  E  E  E  E  E   
--------------------------|--------------------------|
--------------------------|--------------------------|
--------------------------|--------------------------|
--3--6--5--L--3--6--3--5--|--2--5--4--L--2--5--4--L--|
--3--6--5--L--3--6--3--5--|--2--5--4--L--2--5--4--L--|
--1--4--3--L--1--4--1--3--|--0--3--2--L--0--3--2--L--|


                                      PM PM      PM PM  
  E  E  E  E  E  E  E  E     H        S  S  Q    S  S   
--------------------------|----------------------------|
--------------------------|----------------------------|
--------------------------|----------------------------|
--3--6--5--L--3--6--3--5--|--2--------------8----------|
--3--6--5--L--3--6--3--5--|--2--------------8----------|
--1--4--3--L--1--4--1--3--|--0--------0--0--6----0--0--|


                                    PM PM      PM PM                           
  H        S S E  E  E     H        S  S  Q    S  S     H        S S E  E  E   
------------------------|----------------------------|------------------------|
------------------------|----------------------------|------------------------|
------------------------|----------------------------|------------------------|
--8---------------------|--2--------------8----------|--8---------------------|
--8--------6-5-3--5--3--|--2--------------8----------|--8--------6-5-3--5--3--|
--6--------4-3-1--3--1--|--0--------0--0--6----0--0--|--6--------4-3-1--3--1--|


           PM PM      PM PM                           
  H        S  S  Q    S  S     H        S S E  E  E   
----------------------------|------------------------|
----------------------------|------------------------|
----------------------------|------------------------|
--2--------------8----------|--8---------------------|
--2--------------8----------|--8--------6-5-3--5--3--|
--0--------0--0--6----0--0--|--6--------4-3-1--3--1--|


           PM PM      PM PM                                               
  H        S  S  Q    S  S     H        S S E  E  E     W                 
----------------------------|------------------------|-------------------|
----------------------------|------------------------|-------------------|
----------------------------|------------------------|-------------------|
--2--------------8----------|--8---------------------|--2----------------|
--2--------------8----------|--8--------6-5-3--5--3--|--2----------------|
--0--------0--0--6----0--0--|--6--------4-3-1--3--1--|--0----------------|


  W                   W                   W                  
-------------------|-------------------|-------------------||
-------------------|-------------------|-------------------||
-------------------|-------------------|-------------------||
--L----------------|--L----------------|--L----------------||
--L----------------|--L----------------|--L----------------||
--L----------------|--L----------------|--L----------------||


                          Foetus Of A New Day Kicking                           


  
     E             E  E  E  E  E  E  E   
E||--7-------------------7--------7-----|
B||----------------5--5-----5--5-----5--|
G||-------------------------------------|
D||-------------------------------------|
A||-------------------------------------|
E||-------------------------------------|

                                             
  E                      E  E  E  E  E  E  E     E  E  E  Q    Q    E   
--8----------------------------8--------8--7--|------------------------|
-------------------------5--5-----5--5--------|------------------------|
----------------------------------------------|--5--7--4--2----L----L--|
----------------------------------------------|------------------------|
----------------------------------------------|------------------------|
----------------------------------------------|------------------------|

                      
  E                                E  E  E  E  E  E  E   
--------------------------------------------------------|
--5--------------------------------6--5--3--L--3--5--6--|
--------------------------------------------------------|
--------------------------------------------------------|
--------------------------------------------------------|
--------------------------------------------------------|

               
  E  E                              E  E  E  E  E  E   
--7------------------------------------7--------7-----|
-----5------------------------------5-----5--5-----5--|
------------------------------------------------------|
------------------------------------------------------|
------------------------------------------------------|
------------------------------------------------------|


  E  E  E  E  E  E  E  E     E  E  E  Q    Q    E     E  E  E  E  E  E  E  E   
--8--------8--------8--7--|------------------------|--------------------------|
-----5--5-----5--5--------|--5--6--5--3----L----L--|--5--6--5--3--L--3--5--6--|
--------------------------|------------------------|--------------------------|
--------------------------|------------------------|--------------------------|
--------------------------|------------------------|--------------------------|
--------------------------|------------------------|--------------------------|


  E  E  E  E  E  E  E  E     E  E  E  E  E  E  E  E     E  E  E  Q    Q    E   
--7--------7--------7-----|--8--------8--------8--7--|------------------------|
-----5--5-----5--5-----5--|-----5--5-----5--5--------|------------------------|
--------------------------|--------------------------|--5--7--4--2----L----L--|
--------------------------|--------------------------|------------------------|
--------------------------|--------------------------|------------------------|
--------------------------|--------------------------|------------------------|


  E  E  E  E  E  E  E  E     E  E  E  E  E  E  E  E   
--------------------------|--7--------7--------7-----|
--5--6--5--3--L--3--5--6--|-----5--5-----5--5-----5--|
--------------------------|--------------------------|
--------------------------|--------------------------|
--------------------------|--------------------------|
--------------------------|--------------------------|


  E  E  E  E  E  E  E  E     E  E  E  Q    Q    E     E  E  E  E  E  E  E  E   
--8--------8--------8--7--|------------------------|--------------------------|
-----5--5-----5--5--------|------------------------|--5--6--5--3--L--3--5--6--|
--------------------------|--5--7--4--2----L----L--|--------------------------|
--------------------------|------------------------|--------------------------|
--------------------------|------------------------|--------------------------|
--------------------------|------------------------|--------------------------|


  E  E  E  E  E  E  E  E     E  E  E  E  E  E  E  E   
--------------------------|--------------------------|
--------------------------|--------------------------|
--------------------------|--------------------------|
--5--8--7-----------------|--5--8--5--7--------------|
--3--6--5-----------------|--3--6--3--5--------------|
--------------------------|--------------------------|


  E  E  E  E  E  E  E  E     E  E  E  E  E  E  E  E   
--------------------------|--------------------------|
--------------------------|--------------------------|
--------------------------|--------------------------|
--5--8--7-----------------|--------------------------|
--3--6--5-----------------|--------------------------|
--------------------------|--0--2--5--3--L--2--0--L--|


  E  E  E  S S S S S S S S S S    E  E  E  E  S S S S S S S S  
-------------------------------|------------------------------|
-------------------------------|------------------------------|
-------------------------------|------------------------------|
--5--8--7----------------------|--5--8--5--7------------------|
--3--6--5--5-5-5-5-5-5-5-5-5-5-|--3--6--3--5--5-5-5-5-5-5-5-5-|
-------------------------------|------------------------------|


  E  E  E  S S S S S S S S S S    E  E  E  E  E  E  E  E   
-------------------------------|--------------------------|
-------------------------------|--------------------------|
-------------------------------|--------------------------|
--5--8--7----------------------|--------------------------|
--3--6--5--5-5-5-5-5-5-5-5-5-5-|--2--4--7--5--L--4--2--L--|
-------------------------------|--0--2--5--3--L--2--0--L--|


                         
  E                           E  E  S S S S S S S S S S  
--------------------------------------------------------|
--------------------------------------------------------|
--------------------------------------------------------|
--5---------------------------8--7----------------------|
--3---------------------------6--5--5-5-5-5-5-5-5-5-5-5-|
--------------------------------------------------------|


                         
  E                       E  E  E  S S S S S S S S  
---------------------------------------------------|
---------------------------------------------------|
---------------------------------------------------|
--5-----------------------8--5--7------------------|
--3-----------------------6--3--5--5-5-5-5-5-5-5-5-|
---------------------------------------------------|


                                                      
  E                    E  E  S S S S S S S S S S    E  E  E  E  E  E  E  E   
-------------------------------------------------|--------------------------|
-------------------------------------------------|--------------------------|
-------------------------------------------------|--------------------------|
--5--------------------8--7----------------------|--------------------------|
--3--------------------6--5--5-5-5-5-5-5-5-5-5-5-|--2--4--7--5--L--4--2--L--|
-------------------------------------------------|--0--2--5--3--L--2--0--L--|


  E  E  E  S S S S S S S S S S    E  E  E  E  S S S S S S S S  
-------------------------------|------------------------------|
-------------------------------|------------------------------|
-------------------------------|------------------------------|
--5--8--7----------------------|--5--8--5--7------------------|
--3--6--5--5-5-5-5-5-5-5-5-5-5-|--3--6--3--5--5-5-5-5-5-5-5-5-|
-------------------------------|------------------------------|


  E  E  E  S S S S S S S S S S  
-------------------------------|
-------------------------------|
-------------------------------|
--5--8--7----------------------|
--3--6--5--5-5-5-5-5-5-5-5-5-5-|
-------------------------------|


                           
  E  E  E  E  E  E                         E  E   
-------------------------------------------------|
-------------------------------------------------|
-------------------------------------------------|
-------------------------------------------------|
--2--4--7--5--L--4-------------------------2--L--|
--0--2--5--3--L--2-------------------------0--L--|


                
  E  E  E                    E  E  E  E  E   
--7--------------------------7--------7-----|
-----5--5-----------------------5--5-----5--|
--------------------------------------------|
--------------------------------------------|
--------------------------------------------|
--------------------------------------------|


                        
  E               E  E  E  E  E  E  E   
--8---------------------8--------8--7--|
------------------5--5-----5--5--------|
---------------------------------------|
---------------------------------------|
---------------------------------------|
---------------------------------------|


                   
  E  E  E  Q    Q                                                  E   
----------------------------------------------------------------------|
----------------------------------------------------------------------|
--5--7--4--2----L--------------------------------------------------L--|
----------------------------------------------------------------------|
----------------------------------------------------------------------|
----------------------------------------------------------------------|


  E  E  E  E  E  E  E  E     E  E  E  E  E  E  E  E   
--------------------------|--7--------7--------7-----|
--5--6--5--3--L--3--5--6--|-----5--5-----5--5-----5--|
--------------------------|--------------------------|
--------------------------|--------------------------|
--------------------------|--------------------------|
--------------------------|--------------------------|


  E  E  E  E  E  E  E  E     E  E  E  Q    Q    E     E  E  E  E  E  E  E  E   
--8--------8--------8--7--|------------------------|--------------------------|
-----5--5-----5--5--------|--5--6--5--3----L----L--|--5--6--5--3--L--3--5--6--|
--------------------------|------------------------|--------------------------|
--------------------------|------------------------|--------------------------|
--------------------------|------------------------|--------------------------|
--------------------------|------------------------|--------------------------|


                       
  E  E  E                                          E  E  E  E  E   
--7------------------------------------------------7--------7-----|
-----5--5---------------------------------------------5--5-----5--|
------------------------------------------------------------------|
------------------------------------------------------------------|
------------------------------------------------------------------|
------------------------------------------------------------------|


  E  E  E  E  E  E  E  E     E  E  E  Q    Q    E     E  E  E  E  E  E  E  E   
--8--------8--------8--7--|------------------------|--------------------------|
-----5--5-----5--5--------|--5--6--5--3----L----L--|--5--6--5--3--L--3--5--6--|
--------------------------|------------------------|--------------------------|
--------------------------|------------------------|--------------------------|
--------------------------|------------------------|--------------------------|
--------------------------|------------------------|--------------------------|


  E  E  E  E  E  E  E  E     E  E  E  E  E  E  E  E   
--7--------7--------7-----|--8--------8--------8--7--|
-----5--5-----5--5-----5--|-----5--5-----5--5--------|
--------------------------|--------------------------|
--------------------------|--------------------------|
--------------------------|--------------------------|
--------------------------|--------------------------|


                     
  E                                     E  E  Q    Q    E   
-----------------------------------------------------------|
--5-------------------------------------6--5--3----L----L--|
-----------------------------------------------------------|
-----------------------------------------------------------|
-----------------------------------------------------------|
-----------------------------------------------------------|


  E  E  E  E  E  E  E  E       E  E  E  S S S S S S S S S S  
--------------------------||--------------------------------|
--5--6--5--3--L--3--5--6--||--------------------------------|
--------------------------||*-------------------------------|
--------------------------||*--5--8--7----------------------|
--------------------------||---3--6--5--5-5-5-5-5-5-5-5-5-5-|
--------------------------||--------------------------------|


  E  E  E  E  S S S S S S S S    E  E  E  S S S S S S S S S S  
------------------------------|-------------------------------|
------------------------------|-------------------------------|
------------------------------|-------------------------------|
--5--8--5--7------------------|--5--8--7----------------------|
--3--6--3--5--5-5-5-5-5-5-5-5-|--3--6--5--5-5-5-5-5-5-5-5-5-5-|
------------------------------|-------------------------------|


  E  E  E  E  E  E  E  E       E  E  E  E  E  E  E  E   
---------------------------||--------------------------|
---------------------------||--------------------------|
--------------------------*||--------------------------|
--------------------------*||--5--8--7-----------------|
--2--4--7--5--L--4--2--L---||--3--6--5-----------------|
--0--2--5--3--L--2--0--L---||--------------------------|


  E  E  E  E  S S S S S S S S    E  E  E  S S S S S S S S S S  
------------------------------|-------------------------------|
------------------------------|-------------------------------|
------------------------------|-------------------------------|
--5--8--5--7------------------|--5--8--7----------------------|
--3--6--3--5--5-5-5-5-5-5-5-5-|--3--6--5--5-5-5-5-5-5-5-5-5-5-|
------------------------------|-------------------------------|


  E  E  E  E  E  E  E  E     E  E  E  S S S S S S S S S S  
--------------------------|-------------------------------|
--------------------------|-------------------------------|
--------------------------|-------------------------------|
--------------------------|--5--8--7----------------------|
--2--4--7--5--L--4--2--L--|--3--6--5--5-5-5-5-5-5-5-5-5-5-|
--0--2--5--3--L--2--0--L--|-------------------------------|


  E  E  E  E  S S S S S S S S    E  E  E  S S S S S S S S S S  
------------------------------|-------------------------------|
------------------------------|-------------------------------|
------------------------------|-------------------------------|
--5--8--5--7------------------|--5--8--7----------------------|
--3--6--3--5--5-5-5-5-5-5-5-5-|--3--6--5--5-5-5-5-5-5-5-5-5-5-|
------------------------------|-------------------------------|


                                       
  E  E  E  E  E  E  E  E     E       E  E  E                    E  E  E  E   
--------------------------|--7-------------7--------------------------7-----|
--------------------------|----------5--5-----------------------5--5-----5--|
--------------------------|-------------------------------------------------|
--------------------------|-------------------------------------------------|
--2--4--7--5--L--4--2--L--|-------------------------------------------------|
--0--2--5--3--L--2--0--L--|-------------------------------------------------|


                       
  E               E  E  E  E  E  E  E   
--8---------------------8--------8--7--|
------------------5--5-----5--5--------|
---------------------------------------|
---------------------------------------|
---------------------------------------|
---------------------------------------|


                     
  E  E  E  Q    Q                                                  E   
----------------------------------------------------------------------|
----------------------------------------------------------------------|
--5--7--4--2----L--------------------------------------------------L--|
----------------------------------------------------------------------|
----------------------------------------------------------------------|
----------------------------------------------------------------------|


  E  E  E  E  E  E  E  E     E  E  E  E  E  E  E  E   
--------------------------|--7--------7--------7-----|
--5--6--5--3--L--3--5--6--|-----5--5-----5--5-----5--|
--------------------------|--------------------------|
--------------------------|--------------------------|
--------------------------|--------------------------|
--------------------------|--------------------------|


  E  E  E  E  E  E  E  E     E  E  E  Q    Q    E     E  E  E  E  E  E  E  E   
--8--------8--------8--7--|------------------------|--------------------------|
-----5--5-----5--5--------|--5--6--5--3----L----L--|--5--6--5--3--L--3--5--6--|
--------------------------|------------------------|--------------------------|
--------------------------|------------------------|--------------------------|
--------------------------|------------------------|--------------------------|
--------------------------|------------------------|--------------------------|


                        
  E  E  E                                          E  E  E  E  E   
--7------------------------------------------------7--------7-----|
-----5--5---------------------------------------------5--5-----5--|
------------------------------------------------------------------|
------------------------------------------------------------------|
------------------------------------------------------------------|
------------------------------------------------------------------|


  E  E  E  E  E  E  E  E     E  E  E  Q    Q    E     E  E  E  E  E  E  E  E   
--8--------8--------8--7--|------------------------|--------------------------|
-----5--5-----5--5--------|--5--6--5--3----L----L--|--5--6--5--3--L--3--5--6--|
--------------------------|------------------------|--------------------------|
--------------------------|------------------------|--------------------------|
--------------------------|------------------------|--------------------------|
--------------------------|------------------------|--------------------------|


  E  E  E  E  E  E  E  E     E  E  E  E  E  E  E  E   
--7--------7--------7-----|--8--------8--------8--7--|
-----5--5-----5--5-----5--|-----5--5-----5--5--------|
--------------------------|--------------------------|
--------------------------|--------------------------|
--------------------------|--------------------------|
--------------------------|--------------------------|


                   
  E                                     E  E  Q    Q    E   
-----------------------------------------------------------|
--5-------------------------------------6--5--3----L----L--|
-----------------------------------------------------------|
-----------------------------------------------------------|
-----------------------------------------------------------|
-----------------------------------------------------------|


                                               
  E  E  E  E  E  E  E  E     E    E  E   E  E  E   E  E   
--------------------------|------------------------------|
--5--6--5--3--L--3--5--6--|------------------------------|
--------------------------|------------------------------|
--------------------------|------------------------------|
--------------------------|--7----9--7--10--L--9--10--9--|
--------------------------|------------------------------|


  E   E  E  E  E  E   E  E     E   E  E   E  E   E   E  E   
----------------------------|------------------------------|
----------------------------|------------------------------|
----------------------------|------------------------------|
----------------------------|------------------------------|
--7--10--9--5--L--L--10--9--|--7--10--9--12--L--12--10--9--|
----------------------------|------------------------------|


  E   E  E  E   E    E  E  E     E  E  E   E  E  E   E  E   
------------------------------|----------------------------|
------------------------------|----------------------------|
------------------------------|----------------------------|
------------------------------|--7--9--7--10--L--9--10--9--|
--7--10--9--5--12p--10--9--7--|----------------------------|
------------------------------|----------------------------|


  E   E  E  E  E  E   E  E     E   E  E   E  E   E   E  E   
----------------------------|------------------------------|
----------------------------|------------------------------|
----------------------------|------------------------------|
--7--10--9--5--L--L--10--9--|--7--10--9--12--L--12--10--9--|
----------------------------|------------------------------|
----------------------------|------------------------------|


                                                   
  E   E  E  E   E    E  E  E       Q             Q    Q    E  E   
------------------------------||---------------------------------|
------------------------------||---------------------------------|
------------------------------||*--------------------------------|
--7--10--9--5--12p--10--9--7--||*--2-------------L----L----------|
------------------------------||---2-------------L----L----------|
------------------------------||---0-------------L----L----0--2--|


  Q    Q    E  E  E  E     Q    Q    Q    E  E     E  E  E  E  E  E  E  E   4x
------------------------|-----------------------|---------------------------||
------------------------|-----------------------|---------------------------||
------------------------|-----------------------|--------------------------*||
--5----L----L-----------|--4----L----L----L-----|--------------------------*||
--5----L----L-----------|--4----L----L----L-----|---------------------------||
--3----L----L--3--5--3--|--2----L----L----L--4--|--5--4--5--7--L--4--5--4---||


                                                     
  E    E  E   E  E  E   E  E     E   E  E  E  E  E   E  E   
------------------------------|----------------------------|
------------------------------|----------------------------|
------------------------------|----------------------------|
------------------------------|----------------------------|
--7----9--7--10--L--9--10--9--|--7--10--9--5--L--L--10--9--|
------------------------------|----------------------------|


  E   E  E   E  E   E   E  E     E   E  E  E   E    E  E  E   
------------------------------|------------------------------|
------------------------------|------------------------------|
------------------------------|------------------------------|
------------------------------|------------------------------|
--7--10--9--12--L--12--10--9--|--7--10--9--5--12p--10--9--7--|
------------------------------|------------------------------|


                                                        
  E    E  E   E  E  E   E  E     E   E  E  E  E  E   E  E   
------------------------------|----------------------------|
------------------------------|----------------------------|
------------------------------|----------------------------|
--7----9--7--10--L--9--10--9--|--7--10--9--5--L--L--10--9--|
------------------------------|----------------------------|
------------------------------|----------------------------|


  E   E  E   E  E   E   E  E     E   E  E  E   E    E  E  E   
------------------------------|------------------------------|
------------------------------|------------------------------|
------------------------------|------------------------------|
--7--10--9--12--L--12--10--9--|--7--10--9--5--12p--10--9--7--|
------------------------------|------------------------------|
------------------------------|------------------------------|


  E  E  E  E  E  E  E  E     E  E  E  E  E  E  E  E     E  E  E  Q    Q    E   
--7--------7--------7-----|--8--------8--------8--7--|------------------------|
-----5--5-----5--5-----5--|-----5--5-----5--5--------|------------------------|
--------------------------|--------------------------|--5--7--4--2----L----L--|
--------------------------|--------------------------|------------------------|
--------------------------|--------------------------|------------------------|
--------------------------|--------------------------|------------------------|


  E  E  E  E  E  E  E  E     E  E  E  E  E  E  E  E   
--------------------------|--7--------7--------7-----|
--5--6--5--3--L--3--5--6--|-----5--5-----5--5-----5--|
--------------------------|--------------------------|
--------------------------|--------------------------|
--------------------------|--------------------------|
--------------------------|--------------------------|


  E  E  E  E  E  E  E  E     E  E  E  Q    Q    E     E  E  E  E  E  E  E  E   
--8--------8--------8--7--|------------------------|--------------------------|
-----5--5-----5--5--------|--5--6--5--3----L----L--|--5--6--5--3--L--3--5--6--|
--------------------------|------------------------|--------------------------|
--------------------------|------------------------|--------------------------|
--------------------------|------------------------|--------------------------|
--------------------------|------------------------|--------------------------|


  E  E  E  E  E  E  E  E     E  E  E  E  E  E  E  E     E  E  E  Q    Q    E   
--7--------7--------7-----|--8--------8--------8--7--|------------------------|
-----5--5-----5--5-----5--|-----5--5-----5--5--------|------------------------|
--------------------------|--------------------------|--5--7--4--2----L----L--|
--------------------------|--------------------------|------------------------|
--------------------------|--------------------------|------------------------|
--------------------------|--------------------------|------------------------|


  E  E  E  E  E  E  E  E     E  E  E  E  E  E  E  E   
--------------------------|--7--------7--------7-----|
--5--6--5--3--L--3--5--6--|-----5--5-----5--5-----5--|
--------------------------|--------------------------|
--------------------------|--------------------------|
--------------------------|--------------------------|
--------------------------|--------------------------|


  E  E  E  E  E  E  E  E     E  E  E  Q    Q    E     E  E  E  E  E  E  E  E   
--8--------8--------8--7--|------------------------|--------------------------|
-----5--5-----5--5--------|------------------------|--5--6--5--3--L--3--5--6--|
--------------------------|--5--7--4--2----L----L--|--------------------------|
--------------------------|------------------------|--------------------------|
--------------------------|------------------------|--------------------------|
--------------------------|------------------------|--------------------------|


-----|-----||
-----|-----||
-----|-----||
-----|-----||
-----|-----||
-----|-----||





                            Rise Of The Pentagram                               




                            PM PM    PM PM    PM       PM PM    PM PM        
     W                   E  E  E  E  E  E  E  E     E  E  E  E  E  E  E  E   
D||-------------------|--------------------------|--------------------------|
A||-------------------|--------------------------|--------------------------|
F||-------------------|--5--------5--------5-----|--5--------5--------------|
C||-------------------|--5--------5--------5-----|--5--------5--------------|
G||-------------------|--3--3--3--3--3--3--3--3--|--3--3--3--3--3--3--6--5--|
D||-------------------|--------------------------|--------------------------|


     PM PM    PM PM    PM       PM PM    PM PM    PM  
  E  E  E  E  E  E  E  E     E  E  E  E  E  E  E  E   
--------------------------|--------------------------|
--------------------------|--------------------------|
--------------------------|--------------------------|
--5--------5--------5-----|--5--------5--------5-----|
--5--------5--------5-----|--5--------5--------5-----|
--3--3--3--3--3--3--3--3--|--3--3--3--3--3--3--3--3--|


     PM PM    PM PM    PM       PM PM    PM PM        
  E  E  E  E  E  E  E  E     E  E  E  E  E  E  E  E   
--------------------------|--------------------------|
--------------------------|--------------------------|
--5--------5--------5-----|--5--------5--------------|
--5--------5--------5-----|--5--------5--------------|
--3--3--3--3--3--3--3--3--|--3--3--3--3--3--3--6--5--|
--------------------------|--------------------------|


     PM PM    PM PM    PM                                 PM PM    PM PM    PM  
  E  E  E  E  E  E  E  E     E  E  E  Q    E  E  E     E  E  E  E  E  E  E  E   
--------------------------|-------------------------|--------------------------|
--------------------------|-------------------------|--------------------------|
--------------------------|-------------------------|--5--------5--------5-----|
--5--------5--------5-----|-----------5-------------|--5--------5--------5-----|
--5--------5--------5-----|--6--5--3-------6--5-----|--3--3--3--3--3--3--3--3--|
--3--3--3--3--3--3--3--3--|----------------------6--|--------------------------|


     PM PM    PM PM             PM PM    PM PM    PM  
  E  E  E  E  E  E  E  E     E  E  E  E  E  E  E  E   
--------------------------|--------------------------|
--------------------------|--------------------------|
--5--------5--------------|--------------------------|
--5--------5--------------|--5--------5--------5-----|
--3--3--3--3--3--3--6--5--|--5--------5--------5-----|
--------------------------|--3--3--3--3--3--3--3--3--|


     PM PM    PM PM    PM       PM PM    PM PM    PM  
  E  E  E  E  E  E  E  E     E  E  E  E  E  E  E  E   
--------------------------|--------------------------|
--------------------------|--------------------------|
--------------------------|--5--------5--------5-----|
--5--------5--------5-----|--5--------5--------5-----|
--5--------5--------5-----|--3--3--3--3--3--3--3--3--|
--3--3--3--3--3--3--3--3--|--------------------------|


     PM PM    PM PM             PM PM    PM PM    PM                            
  E  E  E  E  E  E  E  E     E  E  E  E  E  E  E  E     E  E  E  Q    E  E  E   
--------------------------|--------------------------|-------------------------|
--------------------------|--------------------------|-------------------------|
--5--------5--------------|--------------------------|-------------------------|
--5--------5--------------|--5--------5--------5-----|-----------5-------------|
--3--3--3--3--3--3--6--5--|--5--------5--------5-----|--6--5--3-------6--5-----|
--------------------------|--3--3--3--3--3--3--3--3--|----------------------6--|


     PM PM    PM PM    PM       PM PM    PM PM        
  E  E  E  E  E  E  E  E     E  E  E  E  E  E  E  E   
--------------------------|--------------------------|
--------------------------|--------------------------|
--5--------5--------5-----|--5--------5--------------|
--5--------5--------5-----|--5--------5--------------|
--3--3--3--3--3--3--3--3--|--3--3--3--3--3--3--6--5--|
--------------------------|--------------------------|


     PM PM    PM PM    PM       PM PM    PM PM    PM  
  E  E  E  E  E  E  E  E     E  E  E  E  E  E  E  E   
--------------------------|--------------------------|
--------------------------|--------------------------|
--------------------------|--------------------------|
--5--------5--------5-----|--5--------5--------5-----|
--5--------5--------5-----|--5--------5--------5-----|
--3--3--3--3--3--3--3--3--|--3--3--3--3--3--3--3--3--|


     PM PM    PM PM    PM       PM PM    PM PM        
  E  E  E  E  E  E  E  E     E  E  E  E  E  E  E  E   
--------------------------|--------------------------|
--------------------------|--------------------------|
--5--------5--------5-----|--5--------5--------------|
--5--------5--------5-----|--5--------5--------------|
--3--3--3--3--3--3--3--3--|--3--3--3--3--3--3--6--5--|
--------------------------|--------------------------|


     PM PM    PM PM    PM                                 PM PM    PM PM    PM  
  E  E  E  E  E  E  E  E     E  E  E  Q    E  E  E     E  E  E  E  E  E  E  E   
--------------------------|-------------------------|--------------------------|
--------------------------|-------------------------|--------------------------|
--------------------------|-------------------------|--5--------5--------5-----|
--5--------5--------5-----|-----------5-------------|--5--------5--------5-----|
--5--------5--------5-----|--6--5--3-------6--5-----|--3--3--3--3--3--3--3--3--|
--3--3--3--3--3--3--3--3--|----------------------6--|--------------------------|


     PM PM    PM PM             PM PM    PM PM    PM  
  E  E  E  E  E  E  E  E     E  E  E  E  E  E  E  E   
--------------------------|--------------------------|
--------------------------|--------------------------|
--5--------5--------------|--------------------------|
--5--------5--------------|--5--------5--------5-----|
--3--3--3--3--3--3--6--5--|--5--------5--------5-----|
--------------------------|--3--3--3--3--3--3--3--3--|


     PM PM    PM PM    PM       PM PM    PM PM    PM  
  E  E  E  E  E  E  E  E     E  E  E  E  E  E  E  E   
--------------------------|--------------------------|
--------------------------|--------------------------|
--------------------------|--5--------5--------5-----|
--5--------5--------5-----|--5--------5--------5-----|
--5--------5--------5-----|--3--3--3--3--3--3--3--3--|
--3--3--3--3--3--3--3--3--|--------------------------|


     PM PM    PM PM             PM PM    PM PM    PM                            
  E  E  E  E  E  E  E  E     E  E  E  E  E  E  E  E     E  E  E  Q    E  E  E   
--------------------------|--------------------------|-------------------------|
--------------------------|--------------------------|-------------------------|
--5--------5--------------|--------------------------|-------------------------|
--5--------5--------------|--5--------5--------5-----|-----------5-------------|
--3--3--3--3--3--3--6--5--|--5--------5--------5-----|--6--5--3-------6--5-----|
--------------------------|--3--3--3--3--3--3--3--3--|----------------------6--|


  H         H                                                               
---------------------|-----------|-----|-----|-----|-----|-----|-----|-----|
---------------------|-----------|-----|-----|-----|-----|-----|-----|-----|
---------------------|-----------|-----|-----|-----|-----|-----|-----|-----|
---------------------|-----------|-----|-----|-----|-----|-----|-----|-----|
---------------------|-----------|-----|-----|-----|-----|-----|-----|-----|
--8\-----------------|-----------|-----|-----|-----|-----|-----|-----|-----|


                                            Q    Q    Q    Q     
-----|-----|-----|-----|-----|-----|-----|----------------------|
-----|-----|-----|-----|-----|-----|-----|----------------------|
-----|-----|-----|-----|-----|-----|-----|----------------------|
-----|-----|-----|-----|-----|-----|-----|--5----5----3----5----|
-----|-----|-----|-----|-----|-----|-----|--3----3----1----3----|
-----|-----|-----|-----|-----|-----|-----|----------------------|


  Q    Q    Q    Q       Q    Q    Q    Q       Q    Q    Q    Q     
----------------------|----------------------|----------------------|
----------------------|----------------------|----------------------|
----------------------|----------------------|----------------------|
--5----5----3----5----|----------------------|----------------------|
--3----3----1----3----|--3----3----5----6----|--3----3----5----6----|
----------------------|--1----1----3----4----|--1----1----3----4----|


  Q    Q    Q    Q       Q    Q    Q    Q       Q    Q    Q    Q     
----------------------|----------------------|----------------------|
----------------------|----------------------|----------------------|
----------------------|--3----3----2---------|----------------------|
--5----5----3----5----|--1----1----0----3----|----------------------|
--3----3----1----3----|-----------------1----|--3----3----5----6----|
----------------------|----------------------|--1----1----3----4----|


  Q    Q    Q    Q       Q    Q    Q    Q       Q    Q    Q    Q     
----------------------|----------------------|----------------------|
----------------------|----------------------|----------------------|
----------------------|----------------------|----------------------|
----------------------|--5----5----3----5----|--5----5----3----5----|
--3----3----5----6----|--3----3----1----3----|--3----3----1----3----|
--1----1----3----4----|----------------------|----------------------|


  Q    Q    Q    Q       Q    Q    Q    Q       Q    Q    Q    Q     
----------------------|----------------------|----------------------|
----------------------|----------------------|----------------------|
----------------------|----------------------|----------------------|
----------------------|----------------------|--5----5----3----5----|
--3----3----5----6----|--3----3----5----6----|--3----3----1----3----|
--1----1----3----4----|--1----1----3----4----|----------------------|


  Q    Q    Q    Q       Q    Q    Q    Q       Q    Q    Q    Q     
----------------------|----------------------|----------------------|
----------------------|----------------------|----------------------|
--3----3----2---------|----------------------|----------------------|
--1----1----0----3----|----------------------|----------------------|
-----------------1----|--3----3----5----6----|--3----3----5----6----|
----------------------|--1----1----3----4----|--1----1----3----4----|


  S S S S S S S S S S S S S S S S    S S S S S S S S S S S S S S S S  
----------------------------------|----------------------------------|
----------------------------------|----------------------------------|
----------------------------------|----------------------------------|
----------------------------------|----------------------------------|
--3-3-3-3-3-3-3-3-1-1-1-1-3-3-3-3-|--3-3-3-3-3-3-3-3-1-1-1-1-3-3-3-3-|
----------------------------------|----------------------------------|


  S S S S S S S S S S S S S S S S    S S S S S S S S S S S S S S S S  
----------------------------------|----------------------------------|
----------------------------------|----------------------------------|
----------------------------------|----------------------------------|
----------------------------------|----------------------------------|
----------------------------------|----------------------------------|
--1-1-1-1-1-1-1-1-3-3-3-3-4-4-4-4-|--1-1-1-1-1-1-1-1-3-3-3-3-4-4-4-4-|


  S S S S S S S S S S S S S S S S    S S S S S S S S S S S S S S S S  
----------------------------------|----------------------------------|
----------------------------------|----------------------------------|
----------------------------------|----------------------------------|
----------------------------------|--1-1-1-1-1-1-1-1-0-0-0-0---------|
--3-3-3-3-3-3-3-3-1-1-1-1-3-3-3-3-|--------------------------1-1-1-1-|
----------------------------------|----------------------------------|


  S S S S S S S S S S S S S S S S    S S S S S S S S S S S S S S S S  
----------------------------------|----------------------------------|
----------------------------------|----------------------------------|
----------------------------------|----------------------------------|
----------------------------------|----------------------------------|
----------------------------------|----------------------------------|
--1-1-1-1-1-1-1-1-3-3-3-3-4-4-4-4-|--1-1-1-1-1-1-1-1-3-3-3-3-4-4-4-4-|


  S S S S S S S S S S S S S S S S    S S S S S S S S S S S S S S S S  
----------------------------------|----------------------------------|
----------------------------------|----------------------------------|
----------------------------------|----------------------------------|
----------------------------------|----------------------------------|
--3-3-3-3-3-3-3-3-1-1-1-1-3-3-3-3-|--3-3-3-3-3-3-3-3-1-1-1-1-3-3-3-3-|
----------------------------------|----------------------------------|


  S S S S S S S S S S S S S S S S    S S S S S S S S S S S S S S S S  
----------------------------------|----------------------------------|
----------------------------------|----------------------------------|
----------------------------------|----------------------------------|
----------------------------------|----------------------------------|
----------------------------------|----------------------------------|
--1-1-1-1-1-1-1-1-3-3-3-3-4-4-4-4-|--1-1-1-1-1-1-1-1-3-3-3-3-4-4-4-4-|


  S S S S S S S S S S S S S S S S    S S S S S S S S S S S S S S S S  
----------------------------------|----------------------------------|
----------------------------------|----------------------------------|
----------------------------------|----------------------------------|
----------------------------------|--1-1-1-1-1-1-1-1-0-0-0-0---------|
--3-3-3-3-3-3-3-3-1-1-1-1-3-3-3-3-|--------------------------1-1-1-1-|
----------------------------------|----------------------------------|


  S S S S S S S S S S S S S S S S    H         Q    Q     
----------------------------------|----------------------|
----------------------------------|----------------------|
----------------------------------|----------------------|
----------------------------------|----------------------|
----------------------------------|--3~------------------|
--1-1-1-1-1-1-3-3-3-3-3-3-4-4-4-4-|------------6----4----|


     PM PM    PM PM    PM       PM PM    PM PM        
  E  E  E  E  E  E  E  E     E  E  E  E  E  E  E  E   
--------------------------|--------------------------|
--------------------------|--------------------------|
--5--------5--------5-----|--5--------5--------------|
--5--------5--------5-----|--5--------5--------------|
--3--3--3--3--3--3--3--3--|--3--3--3--3--3--3--6--5--|
--------------------------|--------------------------|


     PM PM    PM PM    PM       PM PM    PM PM    PM  
  E  E  E  E  E  E  E  E     E  E  E  E  E  E  E  E   
--------------------------|--------------------------|
--------------------------|--------------------------|
--------------------------|--------------------------|
--5--------5--------5-----|--5--------5--------5-----|
--5--------5--------5-----|--5--------5--------5-----|
--3--3--3--3--3--3--3--3--|--3--3--3--3--3--3--3--3--|


     PM PM    PM PM    PM       PM PM    PM PM        
  E  E  E  E  E  E  E  E     E  E  E  E  E  E  E  E   
--------------------------|--------------------------|
--------------------------|--------------------------|
--5--------5--------5-----|--5--------5--------------|
--5--------5--------5-----|--5--------5--------------|
--3--3--3--3--3--3--3--3--|--3--3--3--3--3--3--6--5--|
--------------------------|--------------------------|


     PM PM    PM PM    PM                                 PM PM    PM PM    PM  
  E  E  E  E  E  E  E  E     E  E  E  Q    E  E  E     E  E  E  E  E  E  E  E   
--------------------------|-------------------------|--------------------------|
--------------------------|-------------------------|--------------------------|
--------------------------|-------------------------|--5--------5--------5-----|
--5--------5--------5-----|-----------5-------------|--5--------5--------5-----|
--5--------5--------5-----|--6--5--3-------6--5-----|--3--3--3--3--3--3--3--3--|
--3--3--3--3--3--3--3--3--|----------------------6--|--------------------------|


     PM PM    PM PM             PM PM    PM PM    PM  
  E  E  E  E  E  E  E  E     E  E  E  E  E  E  E  E   
--------------------------|--------------------------|
--------------------------|--------------------------|
--5--------5--------------|--------------------------|
--5--------5--------------|--5--------5--------5-----|
--3--3--3--3--3--3--6--5--|--5--------5--------5-----|
--------------------------|--3--3--3--3--3--3--3--3--|


     PM PM    PM PM    PM       PM PM    PM PM    PM  
  E  E  E  E  E  E  E  E     E  E  E  E  E  E  E  E   
--------------------------|--------------------------|
--------------------------|--------------------------|
--------------------------|--5--------5--------5-----|
--5--------5--------5-----|--5--------5--------5-----|
--5--------5--------5-----|--3--3--3--3--3--3--3--3--|
--3--3--3--3--3--3--3--3--|--------------------------|


     PM PM    PM PM             PM PM    PM PM    PM                            
  E  E  E  E  E  E  E  E     E  E  E  E  E  E  E  E     E  E  E  Q    E  E  E   
--------------------------|--------------------------|-------------------------|
--------------------------|--------------------------|-------------------------|
--5--------5--------------|--------------------------|-------------------------|
--5--------5--------------|--5--------5--------5-----|-----------5-------------|
--3--3--3--3--3--3--6--5--|--5--------5--------5-----|--6--5--3-------6--5-----|
--------------------------|--3--3--3--3--3--3--3--3--|----------------------6--|


     PM PM    PM PM    PM       PM PM    PM PM        
  E  E  E  E  E  E  E  E     E  E  E  E  E  E  E  E   
--------------------------|--------------------------|
--------------------------|--------------------------|
--5--------5--------5-----|--5--------5--------------|
--5--------5--------5-----|--5--------5--------------|
--3--3--3--3--3--3--3--3--|--3--3--3--3--3--3--6--5--|
--------------------------|--------------------------|


     PM PM    PM PM    PM       PM PM    PM PM    PM  
  E  E  E  E  E  E  E  E     E  E  E  E  E  E  E  E   
--------------------------|--------------------------|
--------------------------|--------------------------|
--------------------------|--------------------------|
--5--------5--------5-----|--5--------5--------5-----|
--5--------5--------5-----|--5--------5--------5-----|
--3--3--3--3--3--3--3--3--|--3--3--3--3--3--3--3--3--|


     PM PM    PM PM    PM       PM PM    PM PM        
  E  E  E  E  E  E  E  E     E  E  E  E  E  E  E  E   
--------------------------|--------------------------|
--------------------------|--------------------------|
--5--------5--------5-----|--5--------5--------------|
--5--------5--------5-----|--5--------5--------------|
--3--3--3--3--3--3--3--3--|--3--3--3--3--3--3--6--5--|
--------------------------|--------------------------|


     PM PM    PM PM    PM                            
  E  E  E  E  E  E  E  E     E  E  E  Q    E  E  E   
--------------------------|-------------------------|
--------------------------|-------------------------|
--------------------------|-------------------------|
--5--------5--------5-----|-----------5-------------|
--5--------5--------5-----|--6--5--3-------6--5-----|
--3--3--3--3--3--3--3--3--|----------------------6--|


  S S S S S S S S S S S S S S S S    S S S S S S S S S S S S S S S S  
----------------------------------|----------------------------------|
----------------------------------|----------------------------------|
----------------------------------|----------------------------------|
----------------------------------|----------------------------------|
--3-3-3-3-3-3-3-3-1-1-1-1-3-3-3-3-|--3-3-3-3-3-3-3-3-1-1-1-1-3-3-3-3-|
----------------------------------|----------------------------------|


  S S S S S S S S S S S S S S S S    S S S S S S S S S S S S S S S S  
----------------------------------|----------------------------------|
----------------------------------|----------------------------------|
----------------------------------|----------------------------------|
----------------------------------|----------------------------------|
----------------------------------|----------------------------------|
--1-1-1-1-1-1-1-1-3-3-3-3-4-4-4-4-|--1-1-1-1-1-1-1-1-3-3-3-3-4-4-4-4-|


  S S S S S S S S S S S S S S S S    S S S S S S S S S S S S S S S S  
----------------------------------|----------------------------------|
----------------------------------|----------------------------------|
----------------------------------|----------------------------------|
----------------------------------|--1-1-1-1-1-1-1-1-0-0-0-0---------|
--3-3-3-3-3-3-3-3-1-1-1-1-3-3-3-3-|--------------------------1-1-1-1-|
----------------------------------|----------------------------------|


  S S S S S S S S S S S S S S S S    H         Q    Q     
----------------------------------|----------------------|
----------------------------------|----------------------|
----------------------------------|----------------------|
----------------------------------|----------------------|
----------------------------------|--3~------------------|
--1-1-1-1-1-1-3-3-3-3-3-3-4-4-4-4-|------------6----4----|


  S S S S S S S S S S S S S S S S    S S S S S S S S S S S S S S S S  
----------------------------------|----------------------------------|
----------------------------------|----------------------------------|
----------------------------------|----------------------------------|
----------------------------------|----------------------------------|
--3-3-3-3-3-3-3-3-1-1-1-1-3-3-3-3-|--3-3-3-3-3-3-3-3-1-1-1-1-3-3-3-3-|
----------------------------------|----------------------------------|


  S S S S S S S S S S S S S S S S    S S S S S S S S S S S S S S S S  
----------------------------------|----------------------------------|
----------------------------------|----------------------------------|
----------------------------------|----------------------------------|
----------------------------------|----------------------------------|
----------------------------------|----------------------------------|
--1-1-1-1-1-1-1-1-3-3-3-3-4-4-4-4-|--1-1-1-1-1-1-1-1-3-3-3-3-4-4-4-4-|


  S S S S S S S S S S S S S S S S    S S S S S S S S S S S S S S S S  
----------------------------------|----------------------------------|
----------------------------------|----------------------------------|
----------------------------------|----------------------------------|
----------------------------------|--1-1-1-1-1-1-1-1-0-0-0-0---------|
--3-3-3-3-3-3-3-3-1-1-1-1-3-3-3-3-|--------------------------1-1-1-1-|
----------------------------------|----------------------------------|


  S S S S S S S S S S S S S S S S    H         Q    Q       H.           Q     
----------------------------------|----------------------|--------------------|
----------------------------------|----------------------|--------------------|
----------------------------------|----------------------|--------------------|
----------------------------------|----------------------|--5------------5----|
----------------------------------|--3~------------------|--5------------5----|
--1-1-1-1-1-1-3-3-3-3-3-3-4-4-4-4-|------------6----4----|--3------------3----|


  H.           Q       W                   Q    Q    S S E  Q     
--------------------|-------------------|------------------------|
--------------------|-------------------|------------------------|
--7-----------------|-------------------|--3----3----------------|
--7------------6----|--5----------------|--3----3----3-3-3--3----|
--5------------6----|--5----------------|--1----1----3-3-3--3----|
---------------4----|--3----------------|------------1-1-1--1----|


  H.           Q       H.           Q       W                 
--------------------|--------------------|-------------------|
--------------------|--------------------|-------------------|
--------------------|--7-----------------|-------------------|
--5------------5----|--7------------6----|--3----------------|
--5------------5----|--5------------6----|--3----------------|
--3------------3----|---------------4----|--1----------------|


  Q    Q    S S E  Q       H.           Q       H.           Q     
------------------------|--------------------|--------------------|
------------------------|--------------------|--------------------|
--3---------------------|--------------------|--7-----------------|
--3----3----6-6-6--6----|--5------------5----|--7------------6----|
--1----3----6-6-6--6----|--5------------5----|--5------------6----|
-------1----4-4-4--4----|--3------------3----|---------------4----|


  W                   Q    Q    S S E  Q       H.           Q     
-------------------|------------------------|--------------------|
-------------------|------------------------|--------------------|
-------------------|--3----3----------------|--------------------|
--5----------------|--3----3----3-3-3--3----|--5------------5----|
--5----------------|--1----1----3-3-3--3----|--5------------5----|
--3----------------|------------1-1-1--1----|--3------------3----|


  H.           Q       W                   Q    Q    S S E  Q     
--------------------|-------------------|------------------------|
--------------------|-------------------|------------------------|
--7-----------------|-------------------|--3---------------------|
--7------------6----|--3----------------|--3----3----6-6-6--6----|
--5------------6----|--3----------------|--1----3----6-6-6--6----|
---------------4----|--1----------------|-------1----4-4-4--4----|


  S S S S S S S S S S S S S S S S    S S S S S S S S S S S S S S S S  
----------------------------------|----------------------------------|
----------------------------------|----------------------------------|
----------------------------------|----------------------------------|
--3-3-3-3-3-3-3-3-3-3-3-3-3-3-3-3-|--3-3-3-3-3-3-3-3-----------------|
----------------------------------|------------------5-5-3-3-5-5-3-3-|
----------------------------------|----------------------------------|


  S S S S S S S S S S S S S S S S    S S S S S S S S S S S S S S S S  
----------------------------------|----------------------------------|
----------------------------------|----------------------------------|
----------------------------------|----------------------------------|
----------------------------------|--3-3-3-3-3-3-3-3-----------------|
--2-2-2-2-2-2-2-2-2-2-2-2-2-2-2-2-|------------------2-2-2-2---------|
----------------------------------|--------------------------4-4-4-4-|


  S S S S S S S S S S S S S S S S    S S S S S S S S S S S S S S S S  
----------------------------------|----------------------------------|
----------------------------------|----------------------------------|
----------------------------------|----------------------------------|
--3-3-3-3-3-3-3-3-3-3-3-3-3-3-3-3-|--3-3-3-3-3-3-3-3-----------------|
----------------------------------|------------------5-5-3-3-5-5-3-3-|
----------------------------------|----------------------------------|


  S S S S S S S S S S S S S S S S    S S S S S S S S S S S S S S S S  
----------------------------------|----------------------------------|
----------------------------------|----------------------------------|
----------------------------------|----------------------------------|
----------------------------------|--3-3-3-3-3-3-3-3-----------------|
--2-2-2-2-2-2-2-2-2-2-2-2-2-2-2-2-|------------------2-2-2-2---------|
----------------------------------|--------------------------4-4-4-4-|


  S S S S S S S S S S S S S S S S    S S S S S S S S S S S S S S S S  
----------------------------------|----------------------------------|
----------------------------------|----------------------------------|
----------------------------------|----------------------------------|
--3-3-3-3-3-3-3-3-3-3-3-3-3-3-3-3-|--3-3-3-3-3-3-3-3-----------------|
----------------------------------|------------------5-5-3-3-5-5-3-3-|
----------------------------------|----------------------------------|


  S S S S S S S S S S S S S S S S    S S S S S S S S S S S S S S S S  
----------------------------------|----------------------------------|
----------------------------------|----------------------------------|
----------------------------------|----------------------------------|
----------------------------------|--3-3-3-3-3-3-3-3-----------------|
--2-2-2-2-2-2-2-2-2-2-2-2-2-2-2-2-|------------------2-2-2-2---------|
----------------------------------|--------------------------4-4-4-4-|


  S S S S S S S S S S S S S S S S    S S S S S S S S S S S S S S S S  
----------------------------------|----------------------------------|
----------------------------------|----------------------------------|
----------------------------------|----------------------------------|
--3-3-3-3-3-3-3-3-3-3-3-3-3-3-3-3-|--3-3-3-3-3-3-3-3-----------------|
----------------------------------|------------------5-5-3-3-5-5-3-3-|
----------------------------------|----------------------------------|


  S S S S S S S S S S S S S S S S    S S S S S S S S S S S S S S S S  
----------------------------------|----------------------------------|
----------------------------------|----------------------------------|
----------------------------------|----------------------------------|
----------------------------------|--3-3-3-3-3-3-3-3-----------------|
--2-2-2-2-2-2-2-2-2-2-2-2-2-2-2-2-|------------------2-2-2-2---------|
----------------------------------|--------------------------4-4-4-4-|


  E  Q     E  H                                                         
-----------------------|-----------|-----------|-----------|-----------|
-----------------------|-----------|-----------|-----------|-----------|
-----------------------|-----------|-----------|-----------|-----------|
-----------------------|-----------|-----------|-----------|-----------|
--8--8\----L-----------|-----------|-----------|-----------|-----------|
-----------------------|-----------|-----------|-----------|-----------|


-----------|-----------|-----------|-----------|-----------|-----------|
-----------|-----------|-----------|-----------|-----------|-----------|
-----------|-----------|-----------|-----------|-----------|-----------|
-----------|-----------|-----------|-----------|-----------|-----------|
-----------|-----------|-----------|-----------|-----------|-----------|
-----------|-----------|-----------|-----------|-----------|-----------|


-----------|-----------|-----------|-----------|-----------|-----------|
-----------|-----------|-----------|-----------|-----------|-----------|
-----------|-----------|-----------|-----------|-----------|-----------|
-----------|-----------|-----------|-----------|-----------|-----------|
-----------|-----------|-----------|-----------|-----------|-----------|
-----------|-----------|-----------|-----------|-----------|-----------|


-----------|-----------|-----------|-----------|-----------|-----------|
-----------|-----------|-----------|-----------|-----------|-----------|
-----------|-----------|-----------|-----------|-----------|-----------|
-----------|-----------|-----------|-----------|-----------|-----------|
-----------|-----------|-----------|-----------|-----------|-----------|
-----------|-----------|-----------|-----------|-----------|-----------|


              Q    Q    Q    Q       Q    Q    Q    Q     
-----------|----------------------|----------------------|
-----------|----------------------|----------------------|
-----------|----------------------|----------------------|
-----------|--6----3----5----2----|--6----3----5----2----|
-----------|--6----3----5----2----|--6----3----5----2----|
-----------|--4----1----3----0----|--4----1----3----0----|


  Q    Q    Q    Q       Q    Q    Q    Q       Q    Q    Q    Q     
----------------------|----------------------|----------------------|
----------------------|----------------------|----------------------|
--7----4---------4----|--7----4---------4----|----------------------|
--7----4----3----4----|--7----4----3----4----|--6----3----5----2----|
--5----2----3----2----|--5----2----3----2----|--6----3----5----2----|
------------1---------|------------1---------|--4----1----3----0----|


  Q    Q    Q    Q       Q    Q    Q    Q       Q    Q    Q    Q     
----------------------|----------------------|----------------------|
----------------------|----------------------|----------------------|
----------------------|--7----4---------4----|--7----4---------4----|
--6----3----5----2----|--7----4----3----4----|--7----4----3----4----|
--6----3----5----2----|--5----2----3----2----|--5----2----3----2----|
--4----1----3----0----|------------1---------|------------1---------|


  Q    Q    Q    Q       Q    Q    Q    Q       Q    Q    Q    Q     
----------------------|----------------------|----------------------|
----------------------|----------------------|----------------------|
----------------------|----------------------|--7----4---------4----|
--6----3----5----2----|--6----3----5----2----|--7----4----3----4----|
--6----3----5----2----|--6----3----5----2----|--5----2----3----2----|
--4----1----3----0----|--4----1----3----0----|------------1---------|


  Q    Q    Q    Q       Q    Q    Q    Q       Q    Q    Q    Q     
----------------------|----------------------|----------------------|
----------------------|----------------------|----------------------|
--7----4---------4----|----------------------|----------------------|
--7----4----3----4----|--6----3----5----2----|--6----3----5----2----|
--5----2----3----2----|--6----3----5----2----|--6----3----5----2----|
------------1---------|--4----1----3----0----|--4----1----3----0----|


  Q    Q    Q    Q       Q    Q    Q    Q       H.           Q     
----------------------|----------------------|--------------------|
----------------------|----------------------|--------------------|
--7----4---------4----|--7----4---------4----|--------------------|
--7----4----3----4----|--7----4----3----4----|--5------------5----|
--5----2----3----2----|--5----2----3----2----|--5------------5----|
------------1---------|------------1---------|--3------------3----|


  H.           Q       W                   Q    Q    S S E  Q     
--------------------|-------------------|------------------------|
--------------------|-------------------|------------------------|
--7-----------------|-------------------|--3----3----------------|
--7------------6----|--5----------------|--3----3----3-3-3--3----|
--5------------6----|--5----------------|--1----1----3-3-3--3----|
---------------4----|--3----------------|------------1-1-1--1----|


  H.           Q       H.           Q       W                 
--------------------|--------------------|-------------------|
--------------------|--------------------|-------------------|
--------------------|--7-----------------|-------------------|
--5------------5----|--7------------6----|--3----------------|
--5------------5----|--5------------6----|--3----------------|
--3------------3----|---------------4----|--1----------------|


  Q    Q    S S E  Q       H.           Q       H.           Q     
------------------------|--------------------|--------------------|
------------------------|--------------------|--------------------|
--3---------------------|--------------------|--7-----------------|
--3----3----6-6-6--6----|--5------------5----|--7------------6----|
--1----3----6-6-6--6----|--5------------5----|--5------------6----|
-------1----4-4-4--4----|--3------------3----|---------------4----|


  W                   Q    Q    S S E  Q       H.           Q     
-------------------|------------------------|--------------------|
-------------------|------------------------|--------------------|
-------------------|--3----3----------------|--------------------|
--5----------------|--3----3----3-3-3--3----|--5------------5----|
--5----------------|--1----1----3-3-3--3----|--5------------5----|
--3----------------|------------1-1-1--1----|--3------------3----|


  H.           Q       W                   Q    Q    S S E  Q     
--------------------|-------------------|------------------------|
--------------------|-------------------|------------------------|
--7-----------------|-------------------|--3---------------------|
--7------------6----|--3----------------|--3----3----6-6-6--6----|
--5------------6----|--3----------------|--1----3----6-6-6--6----|
---------------4----|--1----------------|-------1----4-4-4--4----|


     PM PM    PM PM    PM       PM PM    PM PM        
  E  E  E  E  E  E  E  E     E  E  E  E  E  E  E  E   
--------------------------|--------------------------|
--------------------------|--------------------------|
--5--------5--------5-----|--5--------5--------------|
--5--------5--------5-----|--5--------5--------------|
--3--3--3--3--3--3--3--3--|--3--3--3--3--3--3--6--5--|
--------------------------|--------------------------|


     PM PM    PM PM    PM       PM PM    PM PM    PM  
  E  E  E  E  E  E  E  E     E  E  E  E  E  E  E  E   
--------------------------|--------------------------|
--------------------------|--------------------------|
--------------------------|--------------------------|
--5--------5--------5-----|--5--------5--------5-----|
--5--------5--------5-----|--5--------5--------5-----|
--3--3--3--3--3--3--3--3--|--3--3--3--3--3--3--3--3--|


     PM PM    PM PM    PM       PM PM    PM PM        
  E  E  E  E  E  E  E  E     E  E  E  E  E  E  E  E   
--------------------------|--------------------------|
--------------------------|--------------------------|
--5--------5--------5-----|--5--------5--------------|
--5--------5--------5-----|--5--------5--------------|
--3--3--3--3--3--3--3--3--|--3--3--3--3--3--3--6--5--|
--------------------------|--------------------------|


     PM PM    PM PM    PM                                 PM PM    PM PM    PM  
  E  E  E  E  E  E  E  E     E  E  E  Q    E  E  E     E  E  E  E  E  E  E  E   
--------------------------|-------------------------|--------------------------|
--------------------------|-------------------------|--------------------------|
--------------------------|-------------------------|--5--------5--------5-----|
--5--------5--------5-----|-----------5-------------|--5--------5--------5-----|
--5--------5--------5-----|--6--5--3-------6--5-----|--3--3--3--3--3--3--3--3--|
--3--3--3--3--3--3--3--3--|----------------------6--|--------------------------|


     PM PM    PM PM             PM PM    PM PM    PM  
  E  E  E  E  E  E  E  E     E  E  E  E  E  E  E  E   
--------------------------|--------------------------|
--------------------------|--------------------------|
--5--------5--------------|--------------------------|
--5--------5--------------|--5--------5--------5-----|
--3--3--3--3--3--3--6--5--|--5--------5--------5-----|
--------------------------|--3--3--3--3--3--3--3--3--|


     PM PM    PM PM    PM       PM PM    PM PM    PM  
  E  E  E  E  E  E  E  E     E  E  E  E  E  E  E  E   
--------------------------|--------------------------|
--------------------------|--------------------------|
--------------------------|--5--------5--------5-----|
--5--------5--------5-----|--5--------5--------5-----|
--5--------5--------5-----|--3--3--3--3--3--3--3--3--|
--3--3--3--3--3--3--3--3--|--------------------------|


     PM PM    PM PM             PM PM    PM PM    PM                            
  E  E  E  E  E  E  E  E     E  E  E  E  E  E  E  E     E  E  E  Q    E  E  E   
--------------------------|--------------------------|-------------------------|
--------------------------|--------------------------|-------------------------|
--5--------5--------------|--------------------------|-------------------------|
--5--------5--------------|--5--------5--------5-----|-----------5-------------|
--3--3--3--3--3--3--6--5--|--5--------5--------5-----|--6--5--3-------6--5-----|
--------------------------|--3--3--3--3--3--3--3--3--|----------------------6--|


     PM PM    PM PM    PM       PM PM    PM PM        
  E  E  E  E  E  E  E  E     E  E  E  E  E  E  E  E   
--------------------------|--------------------------|
--------------------------|--------------------------|
--5--------5--------5-----|--5--------5--------------|
--5--------5--------5-----|--5--------5--------------|
--3--3--3--3--3--3--3--3--|--3--3--3--3--3--3--6--5--|
--------------------------|--------------------------|


     PM PM    PM PM    PM       PM PM    PM PM    PM  
  E  E  E  E  E  E  E  E     E  E  E  E  E  E  E  E   
--------------------------|--------------------------|
--------------------------|--------------------------|
--------------------------|--------------------------|
--5--------5--------5-----|--5--------5--------5-----|
--5--------5--------5-----|--5--------5--------5-----|
--3--3--3--3--3--3--3--3--|--3--3--3--3--3--3--3--3--|


     PM PM    PM PM    PM       PM PM    PM PM        
  E  E  E  E  E  E  E  E     E  E  E  E  E  E  E  E   
--------------------------|--------------------------|
--------------------------|--------------------------|
--5--------5--------5-----|--5--------5--------------|
--5--------5--------5-----|--5--------5--------------|
--3--3--3--3--3--3--3--3--|--3--3--3--3--3--3--6--5--|
--------------------------|--------------------------|


     PM PM    PM PM    PM                                                  
  E  E  E  E  E  E  E  E     E  E  E  Q    E  E  E     H         H         
--------------------------|-------------------------|---------------------|
--------------------------|-------------------------|---------------------|
--------------------------|-------------------------|---------------------|
--5--------5--------5-----|-----------5-------------|---------------------|
--5--------5--------5-----|--6--5--3-------6--5-----|---------------------|
--3--3--3--3--3--3--3--3--|----------------------6--|--8\-----------------|


-----------|-----|-----|-----|-----|-----|-----|-----|-----|-----|-----|-----|
-----------|-----|-----|-----|-----|-----|-----|-----|-----|-----|-----|-----|
-----------|-----|-----|-----|-----|-----|-----|-----|-----|-----|-----|-----|
-----------|-----|-----|-----|-----|-----|-----|-----|-----|-----|-----|-----|
-----------|-----|-----|-----|-----|-----|-----|-----|-----|-----|-----|-----|
-----------|-----|-----|-----|-----|-----|-----|-----|-----|-----|-----|-----|


-----|-----|-----||
-----|-----|-----||
-----|-----|-----||
-----|-----|-----||
-----|-----|-----||
-----|-----|-----||



                              Under Huntress Moon                               



     S S S S S S  S  S  S  S  S  S     S  S  S  S  S  S S S S S  S S  
D||--------------------------------|---------------------------------|
A||--------------------------------|---------------------------------|
F||--------------------------------|---------------------------------|
C||--7-7-7-7-7-7-12-12-12-12-12-12-|--10-10-10-10-10-10-9-9-9-9-10-9-|
G||--0-0-0-0-0-0--0--0--0--0--0--0-|---0--0--0--0--0--0-0-0-0-0--0-0-|
D||--------------------------------|---------------------------------|

                     
                                   PM              PM PM      PM    PM       
  S S S S S S  S  S  S  S  S  S    S               S  S  S  S S  E  S  E  S  
--------------------------------|-------------------------------------------|
--------------------------------|-------------------------------------------|
--------------------------------|-------------------------------------------|
--7-7-7-7-7-7-12-12-12-12-12-12-|-------------------------------------------|
--0-0-0-0-0-0--0--0--0--0--0--0-|------------------------2h-3----7-----8--5-|
--------------------------------|--1---------------1--1-------0--5--0--6--3-|


  S S S S S S  S  S  S  S  S  S     S  S  S  S  S  S S S S S  S S  
--------------------------------|---------------------------------|
--------------------------------|---------------------------------|
--------------------------------|---------------------------------|
--7-7-7-7-7-7-12-12-12-12-12-12-|--10-10-10-10-10-10-9-9-9-9-10-9-|
--0-0-0-0-0-0--0--0--0--0--0--0-|---0--0--0--0--0--0-0-0-0-0--0-0-|
--------------------------------|---------------------------------|


                                   PM PM PM      PM    PM       
  S S S S S S  S  S  S  S  S  S    S  S  S  S  S S  E  S  E  S  
--------------------------------|------------------------------|
--------------------------------|------------------------------|
--------------------------------|------------------------------|
--7-7-7-7-7-7-12-12-12-12-12-12-|------------------------------|
--0-0-0-0-0-0--0--0--0--0--0--0-|-----------2h-3----7-----8--5-|
--------------------------------|--1--1--1-------0--5--0--6--3-|


   S  S  S  S  S  S  S  S  S  S  S  S     S  S  S  S  S  S  S  S  S  S  S  S  
--------------------------------------|--------------------------------------|
--------------------------------------|--------------------------------------|
--------------------------------------|--------------------------------------|
--10-10-10-10-10-10-15-15-15-15-15-15-|--14-14-14-14-14-14-12-12-12-12-14-12-|
---0--0--0--0--0--0--0--0--0--0--0--0-|---0--0--0--0--0--0--0--0--0--0--0--0-|
--------------------------------------|--------------------------------------|


                                         PM PM PM      PM    PM       
   S  S  S  S  S  S  S  S  S  S  S  S    S  S  S  S  S S  E  S  E  S  
--------------------------------------|------------------------------|
--------------------------------------|------------------------------|
--------------------------------------|------------------------------|
--10-10-10-10-10-10-15-15-15-15-15-15-|------------------------------|
---0--0--0--0--0--0--0--0--0--0--0--0-|-----------2h-3----7-----8--5-|
--------------------------------------|--1--1--1-------0--5--0--6--3-|


   S  S  S  S  S  S  S  S  S  S  S  S     S  S  S  S  S  S  S  S  S  S  S  S  
--------------------------------------|--------------------------------------|
--------------------------------------|--------------------------------------|
--------------------------------------|--------------------------------------|
--10-10-10-10-10-10-15-15-15-15-15-15-|--14-14-14-14-14-14-12-12-12-12-14-12-|
---0--0--0--0--0--0--0--0--0--0--0--0-|---0--0--0--0--0--0--0--0--0--0--0--0-|
--------------------------------------|--------------------------------------|


                                         PM PM PM      PM    PM       
   S  S  S  S  S  S  S  S  S  S  S  S    S  S  S  S  S S  E  S  E  S  
--------------------------------------|------------------------------|
--------------------------------------|------------------------------|
--------------------------------------|------------------------------|
--10-10-10-10-10-10-15-15-15-15-15-15-|------------------------------|
---0--0--0--0--0--0--0--0--0--0--0--0-|-----------2h-3----7-----8--5-|
--------------------------------------|--1--1--1-------0--5--0--6--3-|


  S S S E  S S S S E  S    S S S S S S  S S S  S S S    S S S E  S S S S E  S  
------------------------|----------------------------|------------------------|
------------------------|----------------------------|------------------------|
------------------------|----------------------------|------------------------|
------------------------|----------------------------|------------------------|
--8-7-5-5--L-8-7-5-5--L-|--8-7-5-8-7-5-10-8-7-10-8-7-|--8-7-5-5--L-8-7-5-5--L-|
--6-5-3-3--L-6-5-3-3--L-|--6-5-3-6-5-3--8-6-5--8-6-5-|--6-5-3-3--L-6-5-3-3--L-|


   T  T  T  T  T  T T T T T T T T T T T T T  E   S  
---------------------------------------------------|
---------------------------------------------------|
---------------------------------------------------|
---------------------------------------------------|
--10-10-10-10-10-10-7-7-7-7-7-7-8-8-8-8-8-8-12\--L-|
---8--8--8--8--8--8-5-5-5-5-5-5-6-6-6-6-6-6-10\--L-|


    PM PM         PM PM            PM PM                    
  S S  S  S  E  S S  S  S  E     S S  S  S  E  S S S S S S  
------------------------------|----------------------------|
------------------------------|----------------------------|
------------------------------|----------------------------|
------------------------------|----------------------------|
--4-------4s-5--4-------4s-5--|--4-------4s-5--8-8-8-5-7-5-|
--2-2--2--2s-3--2-2--2--2s-3--|--2-2--2--2s-3--6-6-6-3-5-3-|


    PM PM         PM PM            PM PM                    
  S S  S  S  E  S S  S  S  E     S S  S  S  E  S S S S S S  
------------------------------|----------------------------|
------------------------------|----------------------------|
------------------------------|----------------------------|
------------------------------|----------------------------|
--4-------4s-5--4-------4s-5--|--4-------4s-5--8-8-8-5-7-5-|
--2-2--2--2s-3--2-2--2--2s-3--|--2-2--2--2s-3--6-6-6-3-5-3-|


    PM PM         PM PM            PM PM                    
  S S  S  S  E  S S  S  S  E     S S  S  S  E  S S S S S S  
------------------------------|----------------------------|
------------------------------|----------------------------|
------------------------------|----------------------------|
------------------------------|----------------------------|
--4-------4s-5--4-------4s-5--|--4-------4s-5--8-8-8-5-7-5-|
--2-2--2--2s-3--2-2--2--2s-3--|--2-2--2--2s-3--6-6-6-3-5-3-|


    PM PM         PM PM            PM PM                    
  S S  S  S  E  S S  S  S  E     S S  S  S  E  S S S S S S  
------------------------------|----------------------------|
------------------------------|----------------------------|
------------------------------|----------------------------|
------------------------------|----------------------------|
--4-------4s-5--4-------4s-5--|--4-------4s-5--8-8-8-5-7-5-|
--2-2--2--2s-3--2-2--2--2s-3--|--2-2--2--2s-3--6-6-6-3-5-3-|


  S S S S S S  S  S  S  S  S  S     S  S  S  S  S  S S S S S  S S  
--------------------------------|---------------------------------|
--------------------------------|---------------------------------|
--------------------------------|---------------------------------|
--7-7-7-7-7-7-12-12-12-12-12-12-|--10-10-10-10-10-10-9-9-9-9-10-9-|
--0-0-0-0-0-0--0--0--0--0--0--0-|---0--0--0--0--0--0-0-0-0-0--0-0-|
--------------------------------|---------------------------------|


                                   PM PM PM      PM    PM       
  S S S S S S  S  S  S  S  S  S    S  S  S  S  S S  E  S  E  S  
--------------------------------|------------------------------|
--------------------------------|------------------------------|
--------------------------------|------------------------------|
--7-7-7-7-7-7-12-12-12-12-12-12-|------------------------------|
--0-0-0-0-0-0--0--0--0--0--0--0-|-----------2h-3----7-----8--5-|
--------------------------------|--1--1--1-------0--5--0--6--3-|


  S S S S S S  S  S  S  S  S  S     S  S  S  S  S  S S S S S  S S  
--------------------------------|---------------------------------|
--------------------------------|---------------------------------|
--------------------------------|---------------------------------|
--7-7-7-7-7-7-12-12-12-12-12-12-|--10-10-10-10-10-10-9-9-9-9-10-9-|
--0-0-0-0-0-0--0--0--0--0--0--0-|---0--0--0--0--0--0-0-0-0-0--0-0-|
--------------------------------|---------------------------------|


                                   PM PM PM      PM    PM       
  S S S S S S  S  S  S  S  S  S    S  S  S  S  S S  E  S  E  S  
--------------------------------|------------------------------|
--------------------------------|------------------------------|
--------------------------------|------------------------------|
--7-7-7-7-7-7-12-12-12-12-12-12-|------------------------------|
--0-0-0-0-0-0--0--0--0--0--0--0-|-----------2h-3----7-----8--5-|
--------------------------------|--1--1--1-------0--5--0--6--3-|


   S  S  S  S  S  S  S  S  S  S  S  S     S  S  S  S  S  S  S  S  S  S  S  S  
--------------------------------------|--------------------------------------|
--------------------------------------|--------------------------------------|
--------------------------------------|--------------------------------------|
--10-10-10-10-10-10-15-15-15-15-15-15-|--14-14-14-14-14-14-12-12-12-12-14-12-|
---0--0--0--0--0--0--0--0--0--0--0--0-|---0--0--0--0--0--0--0--0--0--0--0--0-|
--------------------------------------|--------------------------------------|


                                         PM PM PM      PM    PM       
   S  S  S  S  S  S  S  S  S  S  S  S    S  S  S  S  S S  E  S  E  S  
--------------------------------------|------------------------------|
--------------------------------------|------------------------------|
--------------------------------------|------------------------------|
--10-10-10-10-10-10-15-15-15-15-15-15-|------------------------------|
---0--0--0--0--0--0--0--0--0--0--0--0-|-----------2h-3----7-----8--5-|
--------------------------------------|--1--1--1-------0--5--0--6--3-|


   S  S  S  S  S  S  S  S  S  S  S  S     S  S  S  S  S  S  S  S  S  S  S  S  
--------------------------------------|--------------------------------------|
--------------------------------------|--------------------------------------|
--------------------------------------|--------------------------------------|
--10-10-10-10-10-10-15-15-15-15-15-15-|--14-14-14-14-14-14-12-12-12-12-14-12-|
---0--0--0--0--0--0--0--0--0--0--0--0-|---0--0--0--0--0--0--0--0--0--0--0--0-|
--------------------------------------|--------------------------------------|


                                         PM PM PM      PM    PM       
   S  S  S  S  S  S  S  S  S  S  S  S    S  S  S  S  S S  E  S  E  S  
--------------------------------------|------------------------------|
--------------------------------------|------------------------------|
--------------------------------------|------------------------------|
--10-10-10-10-10-10-15-15-15-15-15-15-|------------------------------|
---0--0--0--0--0--0--0--0--0--0--0--0-|-----------2h-3----7-----8--5-|
--------------------------------------|--1--1--1-------0--5--0--6--3-|


  S S S E  S S S S E  S    S S S S S S  S S S  S S S    S S S E  S S S S E  S  
------------------------|----------------------------|------------------------|
------------------------|----------------------------|------------------------|
------------------------|----------------------------|------------------------|
------------------------|----------------------------|------------------------|
--8-7-5-5--L-8-7-5-5--L-|--8-7-5-8-7-5-10-8-7-10-8-7-|--8-7-5-5--L-8-7-5-5--L-|
--6-5-3-3--L-6-5-3-3--L-|--6-5-3-6-5-3--8-6-5--8-6-5-|--6-5-3-3--L-6-5-3-3--L-|


   T  T  T  T  T  T T T T T T T T T T T T T  E   S  
---------------------------------------------------|
---------------------------------------------------|
---------------------------------------------------|
---------------------------------------------------|
--10-10-10-10-10-10-7-7-7-7-7-7-8-8-8-8-8-8-12\--L-|
---8--8--8--8--8--8-5-5-5-5-5-5-6-6-6-6-6-6-10\--L-|


    PM PM         PM PM            PM PM                    
  S S  S  S  E  S S  S  S  E     S S  S  S  E  S S S S S S  
------------------------------|----------------------------|
------------------------------|----------------------------|
------------------------------|----------------------------|
------------------------------|----------------------------|
--4-------4s-5--4-------4s-5--|--4-------4s-5--8-8-8-5-7-5-|
--2-2--2--2s-3--2-2--2--2s-3--|--2-2--2--2s-3--6-6-6-3-5-3-|


    PM PM         PM PM            PM PM                    
  S S  S  S  E  S S  S  S  E     S S  S  S  E  S S S S S S  
------------------------------|----------------------------|
------------------------------|----------------------------|
------------------------------|----------------------------|
------------------------------|----------------------------|
--4-------4s-5--4-------4s-5--|--4-------4s-5--8-8-8-5-7-5-|
--2-2--2--2s-3--2-2--2--2s-3--|--2-2--2--2s-3--6-6-6-3-5-3-|


    PM PM         PM PM            PM PM                    
  S S  S  S  E  S S  S  S  E     S S  S  S  E  S S S S S S  
------------------------------|----------------------------|
------------------------------|----------------------------|
------------------------------|----------------------------|
------------------------------|----------------------------|
--4-------4s-5--4-------4s-5--|--4-------4s-5--8-8-8-5-7-5-|
--2-2--2--2s-3--2-2--2--2s-3--|--2-2--2--2s-3--6-6-6-3-5-3-|


    PM PM         PM PM            PM PM                    
  S S  S  S  E  S S  S  S  E     S S  S  S  E  S S S S S S  
------------------------------|----------------------------|
------------------------------|----------------------------|
------------------------------|----------------------------|
------------------------------|----------------------------|
--4-------4s-5--4-------4s-5--|--4-------4s-5--8-8-8-5-7-5-|
--2-2--2--2s-3--2-2--2--2s-3--|--2-2--2--2s-3--6-6-6-3-5-3-|


  H.           E  E     H        E  E  E  E     H.           Q     
---------------------|-----------------------|--------------------|
---------------------|-----------------------|--------------------|
---------------------|-----------------------|--------------------|
--5------------3--5--|--6--------5--6--5--3--|--2------------3----|
--5------------3--5--|--6--------5--6--5--3--|--2------------3----|
--3------------1--3--|--4--------3--4--3--1--|--0------------1----|


  H        E  E  E  E     H.           E  E     H        E  E  E  E   
-----------------------|---------------------|-----------------------|
-----------------------|---------------------|-----------------------|
-----------------------|---------------------|-----------------------|
--2--------3--5--3--6--|--5------------3--5--|--6--------5--6--5--3--|
--2--------3--5--3--6--|--5------------3--5--|--6--------5--6--5--3--|
--0--------1--3--1--4--|--3------------1--3--|--4--------3--4--3--1--|


  H.           Q       H        E  E  E  E   
--------------------|-----------------------|
--------------------|-----------------------|
--------------------|-----------------------|
--2------------3----|--2--------3--5--3--6--|
--2------------3----|--2--------3--5--3--6--|
--0------------1----|--0--------1--3--1--4--|


  |-3-| |-3-| |-3-| |-3-| |-3-| |-3-| |-3-| |-3-|  
  S S S S S S S S S S S S S S S S S S S S S S S S  
--------------------------------------------------|
--------------------------------------------------|
--------------------------------------------------|
--7-7-7-7-7-7-7-7-7-7-7-7-7-7-7-7-7-7-5-5-5-7-7-7-|
--5-5-5-5-5-5-5-5-5-5-5-5-5-5-5-5-5-5-3-3-3-5-5-5-|
--------------------------------------------------|


  |-3-| |-3-| |-3-| |-3-| |-3-| |-3-| |-3-| |-3-|  
  S S S S S S S S S S S S S S S S S S S S S S S S  
--------------------------------------------------|
--------------------------------------------------|
--------------------------------------------------|
--8-8-8-8-8-8-8-8-8-8-8-8-7-7-7-8-8-8-7-7-7-5-5-5-|
--6-6-6-6-6-6-6-6-6-6-6-6-5-5-5-6-6-6-5-5-5-3-3-3-|
--------------------------------------------------|


  |-3-| |-3-| |-3-| |-3-| |-3-| |-3-| |-3-| |-3-|  
  S S S S S S S S S S S S S S S S S S S S S S S S  
--------------------------------------------------|
--------------------------------------------------|
--------------------------------------------------|
--4-4-4-4-4-4-4-4-4-4-4-4-4-4-4-4-4-4-5-5-5-5-5-5-|
--2-2-2-2-2-2-2-2-2-2-2-2-2-2-2-2-2-2-3-3-3-3-3-3-|
--------------------------------------------------|


  |-3-| |-3-| |-3-| |-3-|              
  S S S S S S S S S S S S E  E  E  E   
--------------------------------------|
--------------------------------------|
--------------------------------------|
--4-4-4-4-4-4-4-4-4-4-4-4-5--7--5--8--|
--2-2-2-2-2-2-2-2-2-2-2-2-3--5--3--6--|
--------------------------------------|


  |-3-| |-3-| |-3-| |-3-| |-3-| |-3-| |-3-| |-3-|  
  S S S S S S S S S S S S S S S S S S S S S S S S  
--------------------------------------------------|
--------------------------------------------------|
--------------------------------------------------|
--7-7-7-7-7-7-7-7-7-7-7-7-7-7-7-7-7-7-5-5-5-7-7-7-|
--5-5-5-5-5-5-5-5-5-5-5-5-5-5-5-5-5-5-3-3-3-5-5-5-|
--------------------------------------------------|


  |-3-| |-3-| |-3-| |-3-| |-3-| |-3-| |-3-| |-3-|  
  S S S S S S S S S S S S S S S S S S S S S S S S  
--------------------------------------------------|
--------------------------------------------------|
--------------------------------------------------|
--8-8-8-8-8-8-8-8-8-8-8-8-7-7-7-8-8-8-7-7-7-5-5-5-|
--6-6-6-6-6-6-6-6-6-6-6-6-5-5-5-6-6-6-5-5-5-3-3-3-|
--------------------------------------------------|


  |-3-| |-3-| |-3-| |-3-| |-3-| |-3-| |-3-| |-3-|  
  S S S S S S S S S S S S S S S S S S S S S S S S  
--------------------------------------------------|
--------------------------------------------------|
--------------------------------------------------|
--4-4-4-4-4-4-4-4-4-4-4-4-4-4-4-4-4-4-5-5-5-5-5-5-|
--2-2-2-2-2-2-2-2-2-2-2-2-2-2-2-2-2-2-3-3-3-3-3-3-|
--------------------------------------------------|


  |-3-| |-3-| |-3-| |-3-|              
  S S S S S S S S S S S S E  E  E  E   
--------------------------------------|
--------------------------------------|
--------------------------------------|
--4-4-4-4-4-4-4-4-4-4-4-4-5--7--5--8--|
--2-2-2-2-2-2-2-2-2-2-2-2-3--5--3--6--|
--------------------------------------|


  |-3-| |-3-| |-3-| |-3-| |-3-| |-3-| |-3-| |-3-|  
  S S S S S S S S S S S S S S S S S S S S S S S S  
--------------------------------------------------|
--------------------------------------------------|
--------------2-2-2-3-3-3-------3-3-3-2-2-2-------|
--------3-3-3-------------------------------3-3-3-|
--5-5-5-------------------3-3-3-------------------|
--------------------------------------------------|


  |-3-| |-3-| |-3-| |-3-| |-3-| |-3-|            
  S S S S S S S S S S S S S S S S S S S  S S  S  
------------------------------------------------|
------------------------------------------------|
--------3-3-3-2-2-2-3-3-3-----------------------|
--1-1-1-----------------------------------------|
--------------------------3-3-3-3-3-3-3h-6-3h-6-|
------------------------------------------------|


  |-3-| |-3-| |-3-| |-3-| |-3-| |-3-| |-3-| |-3-|  
  S S S S S S S S S S S S S S S S S S S S S S S S  
--------------------------------------------------|
--------------------------------------------------|
--------------2-2-2-3-3-3-------3-3-3-2-2-2-------|
--------3-3-3-------------------------------3-3-3-|
--5-5-5-------------------3-3-3-------------------|
--------------------------------------------------|


  |-3-| |-3-| |-3-| |-3-| |-3-| |-3-|            
  S S S S S S S S S S S S S S S S S S S  S S  S  
------------------------------------------------|
------------------------------------------------|
--------3-3-3-2-2-2-3-3-3-----------------------|
--1-1-1-----------------------------------------|
--------------------------3-3-3-3-3-3-3h-6-3h-6-|
------------------------------------------------|


  |-3-| |-3-| |-3-| |-3-| |-3-| |-3-| |-3-| |-3-|  
  S S S S S S S S S S S S S S S S S S S S S S S S  
--------------------------------------------------|
--------------------------------------------------|
--------------2-2-2-3-3-3-------3-3-3-2-2-2-------|
--------3-3-3-------------------------------3-3-3-|
--5-5-5-------------------3-3-3-------------------|
--------------------------------------------------|


  |-3-| |-3-| |-3-| |-3-| |-3-| |-3-|            
  S S S S S S S S S S S S S S S S S S S  S S  S  
------------------------------------------------|
------------------------------------------------|
--------3-3-3-2-2-2-3-3-3-----------------------|
--1-1-1-----------------------------------------|
--------------------------3-3-3-3-3-3-3h-6-3h-6-|
------------------------------------------------|


  |-3-| |-3-| |-3-| |-3-| |-3-| |-3-| |-3-| |-3-|  
  S S S S S S S S S S S S S S S S S S S S S S S S  
--------------------------------------------------|
--------------------------------------------------|
--------------2-2-2-3-3-3-------3-3-3-2-2-2-------|
--------3-3-3-------------------------------3-3-3-|
--5-5-5-------------------3-3-3-------------------|
--------------------------------------------------|


  |-3-| |-3-| |-3-| |-3-| |-3-| |-3-|            
  S S S S S S S S S S S S S S S S S S S  S S  S  
------------------------------------------------|
------------------------------------------------|
--------3-3-3-2-2-2-3-3-3-----------------------|
--1-1-1-----------------------------------------|
--------------------------3-3-3-3-3-3-3h-6-3h-6-|
------------------------------------------------|


  |-3-| |-3-| |-3-| |-3-| |-3-| |-3-| |-3-| |-3-|  
  S S S S S S S S S S S S S S S S S S S S S S S S  
--------------------------------------------------|
--------------------------------------------------|
--------------------------------------------------|
--7-7-7-7-7-7-7-7-7-7-7-7-7-7-7-7-7-7-5-5-5-7-7-7-|
--5-5-5-5-5-5-5-5-5-5-5-5-5-5-5-5-5-5-3-3-3-5-5-5-|
--------------------------------------------------|


  |-3-| |-3-| |-3-| |-3-| |-3-| |-3-| |-3-| |-3-|  
  S S S S S S S S S S S S S S S S S S S S S S S S  
--------------------------------------------------|
--------------------------------------------------|
--------------------------------------------------|
--8-8-8-8-8-8-8-8-8-8-8-8-7-7-7-8-8-8-7-7-7-5-5-5-|
--6-6-6-6-6-6-6-6-6-6-6-6-5-5-5-6-6-6-5-5-5-3-3-3-|
--------------------------------------------------|


  |-3-| |-3-| |-3-| |-3-| |-3-| |-3-| |-3-| |-3-|  
  S S S S S S S S S S S S S S S S S S S S S S S S  
--------------------------------------------------|
--------------------------------------------------|
--------------------------------------------------|
--4-4-4-4-4-4-4-4-4-4-4-4-4-4-4-4-4-4-5-5-5-5-5-5-|
--2-2-2-2-2-2-2-2-2-2-2-2-2-2-2-2-2-2-3-3-3-3-3-3-|
--------------------------------------------------|


  |-3-| |-3-| |-3-| |-3-|              
  S S S S S S S S S S S S E  E  E  E   
--------------------------------------|
--------------------------------------|
--------------------------------------|
--4-4-4-4-4-4-4-4-4-4-4-4-5--7--5--8--|
--2-2-2-2-2-2-2-2-2-2-2-2-3--5--3--6--|
--------------------------------------|


  |-3-| |-3-| |-3-| |-3-| |-3-| |-3-| |-3-| |-3-|  
  S S S S S S S S S S S S S S S S S S S S S S S S  
--------------------------------------------------|
--------------------------------------------------|
--------------------------------------------------|
--7-7-7-7-7-7-7-7-7-7-7-7-7-7-7-7-7-7-5-5-5-7-7-7-|
--5-5-5-5-5-5-5-5-5-5-5-5-5-5-5-5-5-5-3-3-3-5-5-5-|
--------------------------------------------------|


  |-3-| |-3-| |-3-| |-3-| |-3-| |-3-| |-3-| |-3-|  
  S S S S S S S S S S S S S S S S S S S S S S S S  
--------------------------------------------------|
--------------------------------------------------|
--------------------------------------------------|
--8-8-8-8-8-8-8-8-8-8-8-8-7-7-7-8-8-8-7-7-7-5-5-5-|
--6-6-6-6-6-6-6-6-6-6-6-6-5-5-5-6-6-6-5-5-5-3-3-3-|
--------------------------------------------------|


  |-3-| |-3-| |-3-| |-3-| |-3-| |-3-| |-3-| |-3-|  
  S S S S S S S S S S S S S S S S S S S S S S S S  
--------------------------------------------------|
--------------------------------------------------|
--------------------------------------------------|
--4-4-4-4-4-4-4-4-4-4-4-4-4-4-4-4-4-4-5-5-5-5-5-5-|
--2-2-2-2-2-2-2-2-2-2-2-2-2-2-2-2-2-2-3-3-3-3-3-3-|
--------------------------------------------------|


  |-3-| |-3-| |-3-| |-3-|                         |-3-| |-3-| |-3-| |-3-|  
  S S S S S S S S S S S S E  E  E  E     H        S S S S S S S S S S S S  
--------------------------------------|-----------------------------------|
--------------------------------------|-----------------------------------|
--------------------------------------|-----------------------------------|
--4-4-4-4-4-4-4-4-4-4-4-4-5--7--5--8--|-----------7-7-7-7-7-7-7-7-7-7-7-7-|
--2-2-2-2-2-2-2-2-2-2-2-2-3--5--3--6--|-----------5-5-5-5-5-5-5-5-5-5-5-5-|
--------------------------------------|-----------------------------------|


           |-3-| |-3-|  |--3--|  |--3--|             |-3-| |-3-|       
  H        S S S S S S  S  S  S  S  S  S    H        S S S S S S Q     
-----------------------------------------|----------------------------|
-----------------------------------------|----------------------------|
-----------------------------------------|----------------------------|
-----------7-7-7-7-7-7-10-10-10-10-10-10-|-----------7-7-7-7-7-7-5----|
-----------5-5-5-5-5-5--8--8--8--8--8--8-|-----------5-5-5-5-5-5-5----|
-----------------------------------------|-----------------------3----|


                                    |-3-| |-3-| |-3-| |-3-|  
  Q    Q    E  E  E  E     H        S S S S S S S S S S S S  
------------------------|-----------------------------------|
------------------------|-----------------------------------|
------------------------|-----------------------------------|
--6----5----4--6--5--4--|-----------7-7-7-7-7-7-7-7-7-7-7-7-|
--6----5----4--6--5--4--|-----------5-5-5-5-5-5-5-5-5-5-5-5-|
--4----3----2--4--3--2--|-----------------------------------|


           |-3-| |-3-|  |--3--|  |--3--|             |-3-| |-3-|       
  H        S S S S S S  S  S  S  S  S  S    H        S S S S S S Q     
-----------------------------------------|----------------------------|
-----------------------------------------|----------------------------|
-----------------------------------------|----------------------------|
-----------7-7-7-7-7-7-10-10-10-10-10-10-|-----------7-7-7-7-7-7-5----|
-----------5-5-5-5-5-5--8--8--8--8--8--8-|-----------5-5-5-5-5-5-5----|
-----------------------------------------|-----------------------3----|


       |--3--|       |--3--|     ---                                         
  Q    E  E  E  Q    E  E  E           W                   W                 
------------------------------|-----|-------------------|-------------------|
------------------------------|-----|-------------------|-------------------|
------------------------------|-----|-------------------|-------------------|
--5----6--5--4--5----6--5--4--|-----|-------------------|-------------------|
--5----6--5--4--5----6--5--4--|-----|-------------------|-------------------|
--3----4--3--2--3----4--3--2--|-----|-------------------|-------------------|


  W                   W                   W                   W                 
-------------------|-------------------|-------------------|-------------------|
-------------------|-------------------|-------------------|-------------------|
-------------------|-------------------|-------------------|-------------------|
-------------------|-------------------|-------------------|-------------------|
-------------------|-------------------|-------------------|-------------------|
-------------------|-------------------|-------------------|-------------------|


  W                   W                   W                   W                 
-------------------|-------------------|-------------------|-------------------|
-------------------|-------------------|-------------------|-------------------|
-------------------|-------------------|-------------------|-------------------|
-------------------|-------------------|-------------------|-------------------|
-------------------|-------------------|-------------------|-------------------|
-------------------|-------------------|-------------------|-------------------|


  W                   W                   W                   W                 
-------------------|-------------------|-------------------|-------------------|
-------------------|-------------------|-------------------|-------------------|
-------------------|-------------------|-------------------|-------------------|
-------------------|-------------------|-------------------|-------------------|
-------------------|-------------------|-------------------|-------------------|
-------------------|-------------------|-------------------|-------------------|


  W                   H.              Q.     Q     S S    H.            
-------------------|---------------|-------------------|---------------|
-------------------|---------------|-------------------|---------------|
-------------------|---------------|-------------------|---------------|
-------------------|--7------------|--L------L----10-9-|--7------------|
-------------------|--0------------|--L------L-----0-0-|--0------------|
-------------------|---------------|-------------------|---------------|


  PM PM PM      PM PM PM PM                                          
  S  S  S  S  S S  S  S  S  S  S S    S S S S S S  S  S  S  S  S  S  
-----------------------------------|--------------------------------|
-----------------------------------|--------------------------------|
-----------------------------------|--------------------------------|
-----------------------------------|--7-7-7-7-7-7-12-12-12-12-12-12-|
-----------2h-3-------------2h-3---|--0-0-0-0-0-0--0--0--0--0--0--0-|
--1--1--1-------0--1--1--1-------3-|--------------------------------|


   S  S  S  S  S  S S S S S  S S    S S S S S S  S  S  S  S  S  S  
---------------------------------|--------------------------------|
---------------------------------|--------------------------------|
---------------------------------|--------------------------------|
--10-10-10-10-10-10-9-9-9-9-10-9-|--7-7-7-7-7-7-12-12-12-12-12-12-|
---0--0--0--0--0--0-0-0-0-0--0-0-|--0-0-0-0-0-0--0--0--0--0--0--0-|
---------------------------------|--------------------------------|


  PM PM PM      PM    PM                                              
  S  S  S  S  S S  E  S  E  S     S  S  S  S  S  S  S  S  S  S  S  S  
------------------------------|--------------------------------------|
------------------------------|--------------------------------------|
------------------------------|--------------------------------------|
------------------------------|--10-10-10-10-10-10-15-15-15-15-15-15-|
-----------2h-3----7-----8--5-|---0--0--0--0--0--0--0--0--0--0--0--0-|
--1--1--1-------0--5--0--6--3-|--------------------------------------|


   S  S  S  S  S  S  S  S  S  S  S  S     S  S  S  S  S  S  S  S  S  S  S  S  
--------------------------------------|--------------------------------------|
--------------------------------------|--------------------------------------|
--------------------------------------|--------------------------------------|
--14-14-14-14-14-14-12-12-12-12-14-12-|--10-10-10-10-10-10-15-15-15-15-15-15-|
---0--0--0--0--0--0--0--0--0--0--0--0-|---0--0--0--0--0--0--0--0--0--0--0--0-|
--------------------------------------|--------------------------------------|


  PM PM PM      PM    PM                                              
  S  S  S  S  S S  E  S  E  S     S  S  S  S  S  S  S  S  S  S  S  S  
------------------------------|--------------------------------------|
------------------------------|--------------------------------------|
------------------------------|--------------------------------------|
------------------------------|--10-10-10-10-10-10-15-15-15-15-15-15-|
-----------2h-3----7-----8--5-|---0--0--0--0--0--0--0--0--0--0--0--0-|
--1--1--1-------0--5--0--6--3-|--------------------------------------|


   S  S  S  S  S  S  S  S  S  S  S  S     S  S  S  S  S  S  S  S  S  S  S  S  
--------------------------------------|--------------------------------------|
--------------------------------------|--------------------------------------|
--------------------------------------|--------------------------------------|
--14-14-14-14-14-14-12-12-12-12-14-12-|--10-10-10-10-10-10-15-15-15-15-15-15-|
---0--0--0--0--0--0--0--0--0--0--0--0-|---0--0--0--0--0--0--0--0--0--0--0--0-|
--------------------------------------|--------------------------------------|


  PM PM PM      PM    PM                                
  S  S  S  S  S S  E  S  E  S    S S S E  S S S S E  S  
------------------------------|------------------------|
------------------------------|------------------------|
------------------------------|------------------------|
------------------------------|------------------------|
-----------2h-3----7-----8--5-|--8-7-5-5--L-8-7-5-5--L-|
--1--1--1-------0--5--0--6--3-|--6-5-3-3--L-6-5-3-3--L-|


  S S S S S S  S S S  S S S    S S S E  S S S S E  S  
----------------------------|------------------------|
----------------------------|------------------------|
----------------------------|------------------------|
----------------------------|------------------------|
--8-7-5-8-7-5-10-8-7-10-8-7-|--8-7-5-5--L-8-7-5-5--L-|
--6-5-3-6-5-3--8-6-5--8-6-5-|--6-5-3-3--L-6-5-3-3--L-|


   T  T  T  T  T  T T T T T T T T T T T T T  E   S  
---------------------------------------------------|
---------------------------------------------------|
---------------------------------------------------|
---------------------------------------------------|
--10-10-10-10-10-10-7-7-7-7-7-7-8-8-8-8-8-8-12\--L-|
---8--8--8--8--8--8-5-5-5-5-5-5-6-6-6-6-6-6-10\--L-|


    PM PM         PM PM            PM PM                    
  S S  S  S  E  S S  S  S  E     S S  S  S  E  S S S S S S  
------------------------------|----------------------------|
------------------------------|----------------------------|
------------------------------|----------------------------|
------------------------------|----------------------------|
--4-------4s-5--4-------4s-5--|--4-------4s-5--8-8-8-5-7-5-|
--2-2--2--2s-3--2-2--2--2s-3--|--2-2--2--2s-3--6-6-6-3-5-3-|


    PM PM         PM PM            PM PM                    
  S S  S  S  E  S S  S  S  E     S S  S  S  E  S S S S S S  
------------------------------|----------------------------|
------------------------------|----------------------------|
------------------------------|----------------------------|
------------------------------|----------------------------|
--4-------4s-5--4-------4s-5--|--4-------4s-5--8-8-8-5-7-5-|
--2-2--2--2s-3--2-2--2--2s-3--|--2-2--2--2s-3--6-6-6-3-5-3-|


    PM PM         PM PM            PM PM                    
  S S  S  S  E  S S  S  S  E     S S  S  S  E  S S S S S S  
------------------------------|----------------------------|
------------------------------|----------------------------|
------------------------------|----------------------------|
------------------------------|----------------------------|
--4-------4s-5--4-------4s-5--|--4-------4s-5--8-8-8-5-7-5-|
--2-2--2--2s-3--2-2--2--2s-3--|--2-2--2--2s-3--6-6-6-3-5-3-|


    PM PM         PM PM            PM PM                    
  S S  S  S  E  S S  S  S  E     S S  S  S  E  S S S S S S  
------------------------------|----------------------------|
------------------------------|----------------------------|
------------------------------|----------------------------|
------------------------------|----------------------------|
--4-------4s-5--4-------4s-5--|--4-------4s-5--8-8-8-5-7-5-|
--2-2--2--2s-3--2-2--2--2s-3--|--2-2--2--2s-3--6-6-6-3-5-3-|


           |-3-| |-3-| |-3-| |-3-|             |-3-| |-3-|  |--3--|  |--3--|  
  H        S S S S S S S S S S S S    H        S S S S S S  S  S  S  S  S  S  
-----------------------------------|-----------------------------------------|
-----------------------------------|-----------------------------------------|
-----------------------------------|-----------------------------------------|
-----------7-7-7-7-7-7-7-7-7-7-7-7-|-----------7-7-7-7-7-7-10-10-10-10-10-10-|
-----------5-5-5-5-5-5-5-5-5-5-5-5-|-----------5-5-5-5-5-5--8--8--8--8--8--8-|
-----------------------------------|-----------------------------------------|


           |-3-| |-3-|                                
  H        S S S S S S Q       Q    Q    E  E  E  E   
----------------------------|------------------------|
----------------------------|------------------------|
----------------------------|------------------------|
-----------7-7-7-7-7-7-5----|--6----5----4--6--5--4--|
-----------5-5-5-5-5-5-5----|--6----5----4--6--5--4--|
-----------------------3----|--4----3----2--4--3--2--|


           |-3-| |-3-| |-3-| |-3-|             |-3-| |-3-|  |--3--|  |--3--|  
  H        S S S S S S S S S S S S    H        S S S S S S  S  S  S  S  S  S  
-----------------------------------|-----------------------------------------|
-----------------------------------|-----------------------------------------|
-----------------------------------|-----------------------------------------|
-----------7-7-7-7-7-7-7-7-7-7-7-7-|-----------7-7-7-7-7-7-10-10-10-10-10-10-|
-----------5-5-5-5-5-5-5-5-5-5-5-5-|-----------5-5-5-5-5-5--8--8--8--8--8--8-|
-----------------------------------|-----------------------------------------|


           |-3-| |-3-|              |--3--|       |--3--|                       
  H        S S S S S S Q       Q    E  E  E  Q    E  E  E     W                 
----------------------------|------------------------------|-------------------|
----------------------------|------------------------------|-------------------|
----------------------------|------------------------------|-------------------|
-----------7-7-7-7-7-7-5----|--5----6--5--4--5----6--5--4--|-------------------|
-----------5-5-5-5-5-5-5----|--5----6--5--4--5----6--5--4--|-------------------|
-----------------------3----|--3----4--3--2--3----4--3--2--|-------------------|


  W                   W                   W                   W                 
-------------------|-------------------|-------------------|-------------------|
-------------------|-------------------|-------------------|-------------------|
-------------------|-------------------|-------------------|-------------------|
-------------------|-------------------|-------------------|-------------------|
-------------------|-------------------|-------------------|-------------------|
-------------------|-------------------|-------------------|-------------------|


  W                   W                   W                   W                 
-------------------|-------------------|-------------------|-------------------|
-------------------|-------------------|-------------------|-------------------|
-------------------|-------------------|-------------------|-------------------|
-------------------|-------------------|-------------------|-------------------|
-------------------|-------------------|-------------------|-------------------|
-------------------|-------------------|-------------------|-------------------|


  W                   W                   W                   W                 
-------------------|-------------------|-------------------|-------------------|
-------------------|-------------------|-------------------|-------------------|
-------------------|-------------------|-------------------|-------------------|
-------------------|-------------------|-------------------|-------------------|
-------------------|-------------------|-------------------|-------------------|
-------------------|-------------------|-------------------|-------------------|


  W                   W                 
-------------------|-------------------|
-------------------|-------------------|
-------------------|-------------------|
-------------------|-------------------|
-------------------|-------------------|
-------------------|-------------------|


  |---3--|  |---3--|   |--3--|  |--3--|                        
  E  E   E  E   E  E   E  E  E  E  E  E     W                  
-----------------------------------------|--------------------|
--8--------------------------------------|--------------------|
-----9------9----------------------------|--------------------|
--------10-----10--7--10--7-----7--------|--------------------|
-----------------------------8-----8--7--|--5~----------------|
-----------------------------------------|--------------------|


  W                                                         
-------------------|-------------------|-------------------|
-------------------|-------------------|-------------------|
-------------------|-------------------|-------------------|
-------------------|-------------------|-------------------|
--L----------------|-------------------|-------------------|
-------------------|-------------------|-------------------|


  S S S S S S S S S S S S S S S S    S S S S S S S S S S S S S S S S  
----------------------------------|----------------------------------|
----------------------------------|----------------------------------|
----------------------------------|----------------------------------|
----------------------------------|----------------------9-9-5-5-----|
--5-5-5-5-5-5-5-5-7-7-5-5-8-8-5-5-|------6-6-6-6-6-6-7-7---------9-9-|
----------------------------------|--8-8-----------------------------|


  S S S S S S S S S S S S S S S S    S S S S S S S S S S S S S S S S  
----------------------------------|----------------------------------|
----------------------------------|----------------------------------|
----------------------------------|--------------------------9-9-----|
----------------------------------|----------------------9-9-----9-9-|
--5-5-5-5-5-5-5-5-7-7-5-5-8-8-5-5-|------6-6-6-6-6-6-7-7-------------|
----------------------------------|--8-8-----------------------------|


  S S S S S S S S S S S S S S S S    S S S S S S S S S S S S S S S S  
----------------------------------|----------------------------------|
----------------------------------|----------------------------------|
----------------------------------|----------------------------------|
----------------------------------|----------------------------------|
--5-5-5-5-5-5-5-5-5-5-5-5---------|----------------------2-2---------|
--------------------------5-5-5-5-|--4-4-4-4-4-4-4-4-0-0-----3-3-2-2-|


  S S S S S S S S S S S S S S S S    S S S S S S S S S S S S S S S S  
----------------------------------|----------------------------------|
----------------------------------|----------------------------------|
----------------------------------|----------------------------------|
----------------------------------|--------------------------2-2-----|
--5-5-5-5-5-5-5-5-5-5-5-5---------|----------------------2-2-----2-2-|
--------------------------5-5-5-5-|--4-4-4-4-4-4-4-4-0-0-------------|


  S S S S S S S S S S S S S S S S    S S S S S S S S S S S S S S S S  
----------------------------------|----------------------------------|
----------------------------------|----------------------------------|
----------------------------------|----------------------------------|
----------------------------------|----------------------------------|
--5-5-5-5-5-5-5-5-5-5-5-5---------|----------------------2-2---------|
--------------------------5-5-5-5-|--4-4-4-4-4-4-4-4-0-0-----3-3-2-2-|


  S S S S S S S S S S S S S S S S    S S S S S S S S S S S S S S S S  
----------------------------------|----------------------------------|
----------------------------------|----------------------------------|
----------------------------------|----------------------------------|
----------------------------------|--------------------------2-2-----|
--5-5-5-5-5-5-5-5-5-5-5-5---------|----------------------2-2-----2-2-|
--------------------------5-5-5-5-|--4-4-4-4-4-4-4-4-0-0-------------|


  S S S S S S S S S S S S S S S S    S S S S S S S S S S S S S S S S  
----------------------------------|----------------------------------|
----------------------------------|----------------------------------|
----------------------------------|----------------------------------|
----------------------------------|----------------------------------|
--5-5-5-5-5-5-5-5-5-5-5-5---------|----------------------2-2---------|
--------------------------5-5-5-5-|--4-4-4-4-4-4-4-4-0-0-----3-3-2-2-|


  S S S S S S S S S S S S S S S S    S S S S S S S S S S S S S S S S  
----------------------------------|----------------------------------|
----------------------------------|----------------------------------|
----------------------------------|----------------------------------|
----------------------------------|--------------------------2-2-----|
--5-5-5-5-5-5-5-5-5-5-5-5---------|----------------------2-2-----2-2-|
--------------------------5-5-5-5-|--4-4-4-4-4-4-4-4-0-0-------------|


  Put some reverb here and  let your finger on fret                    
  E                                                 E  Q    Q    Q     
----------------------------------------------------------------------|
----------------------------------------------------------------------|
-------------------------------------------------------7---------7----|
----------------------------------------------------7-------7---------|
--5-------------------------------------------------------------------|
----------------------------------------------------------------------|


  E  E  Q    Q    Q       E  E  Q    Q    Q       E  E  Q    Q    Q     
-----------------------|-----------------------|-----------------------|
-----------------------|-----------------------|-----------------------|
-----------------------|--------7---------7----|-----------------------|
--------8---------8----|-----7-------7---------|-----------------------|
--7--7-------6---------|--5--------------------|--------8---------8----|
-----------------------|-----------------------|--7--7-------6---------|


  E  E  Q    Q    Q       E  E  Q    Q    Q       E  E  Q    Q    Q     
-----------------------|-----------------------|-----------------------|
-----------------------|-----------------------|-----------------------|
--------7---------7----|-----------------------|--------7---------7----|
-----7-------7---------|--------8---------8----|-----7-------7---------|
--5--------------------|--7--7-------6---------|--5--------------------|
-----------------------|-----------------------|-----------------------|


  E  E  Q    Q    Q       S S S S S S S S S S S S  S  S S S  
-----------------------|------------------------------------|
-----------------------|------------------------------------|
-----------------------|--7-7-7-7-7-7-7-7-9-9-7-7-10-10-7-7-|
-----------------------|------------------------------------|
--------8---------8----|------------------------------------|
--7--7-------6---------|------------------------------------|


   S  S S S S S S S S S S S S S S S    S S S S S S S S S S S S  S  S S S  
------------------------7-7---------|------------------------------------|
----------------------------8-8-7-7-|------------------------------------|
--------8-8-8-8-8-8-9-9-------------|--7-7-7-7-7-7-7-7-9-9-7-7-10-10-7-7-|
--10-10-----------------------------|------------------------------------|
------------------------------------|------------------------------------|
------------------------------------|------------------------------------|


   S  S S S S S S S S S  S  S  S  S  S  S    S S S S S S S S S S S S  S  S S S  
------------------------------12-12-------|------------------------------------|
------------------------12-12-------12-12-|------------------------------------|
--------8-8-8-8-8-8-9-9-------------------|--7-7-7-7-7-7-7-7-9-9-7-7-10-10-7-7-|
--10-10-----------------------------------|------------------------------------|
------------------------------------------|------------------------------------|
------------------------------------------|------------------------------------|


   S  S S S S S S S S S S S S S S S    S S S S S S S S S S S S  S  S S S  
------------------------7-7---------|------------------------------------|
----------------------------8-8-7-7-|------------------------------------|
--------8-8-8-8-8-8-9-9-------------|--7-7-7-7-7-7-7-7-9-9-7-7-10-10-7-7-|
--10-10-----------------------------|------------------------------------|
------------------------------------|------------------------------------|
------------------------------------|------------------------------------|


   S  S S S S S S S S S  S  S  S  S  S  S    S S S S S S S S S S S S  S  S S S  
------------------------------12-12-------|------------------------------------|
------------------------12-12-------12-12-|------------------------------------|
--------8-8-8-8-8-8-9-9-------------------|--7-7-7-7-7-7-7-7-9-9-7-7-10-10-7-7-|
--10-10-----------------------------------|------------------------------------|
------------------------------------------|------------------------------------|
------------------------------------------|------------------------------------|


   S  S S S S S S S S S S S S S S S    S S S S S S S S S S S S  S  S S S  
------------------------7-7---------|------------------------------------|
----------------------------8-8-7-7-|------------------------------------|
--------8-8-8-8-8-8-9-9-------------|--7-7-7-7-7-7-7-7-9-9-7-7-10-10-7-7-|
--10-10-----------------------------|------------------------------------|
------------------------------------|------------------------------------|
------------------------------------|------------------------------------|


   S  S S S S S S S S S  S  S  S  S  S  S    S S S S S S S S S S S S  S  S S S  
------------------------------12-12-------|------------------------------------|
------------------------12-12-------12-12-|------------------------------------|
--------8-8-8-8-8-8-9-9-------------------|--7-7-7-7-7-7-7-7-9-9-7-7-10-10-7-7-|
--10-10-----------------------------------|------------------------------------|
------------------------------------------|------------------------------------|
------------------------------------------|------------------------------------|


   S  S S S S S S S S S S S S S S S    S S S S S S S S S S S S  S  S S S  
------------------------7-7---------|------------------------------------|
----------------------------8-8-7-7-|------------------------------------|
--------8-8-8-8-8-8-9-9-------------|--7-7-7-7-7-7-7-7-9-9-7-7-10-10-7-7-|
--10-10-----------------------------|------------------------------------|
------------------------------------|------------------------------------|
------------------------------------|------------------------------------|


   S  S S S S S S S S S  S  S  S  S  S  S    E  E  Q    Q    Q     
------------------------------12-12-------|-----------------------|
------------------------12-12-------12-12-|-----------------------|
--------8-8-8-8-8-8-9-9-------------------|--------7---------7----|
--10-10-----------------------------------|-----7-------7---------|
------------------------------------------|--5--------------------|
------------------------------------------|-----------------------|


  E  E  Q    Q    Q       E  E  Q    Q    Q       E  E  Q    Q    Q     
-----------------------|-----------------------|-----------------------|
-----------------------|-----------------------|-----------------------|
-----------------------|--------7---------7----|-----------------------|
--------8---------8----|-----7-------7---------|-----------------------|
--7--7-------6---------|--5--------------------|--------8---------8----|
-----------------------|-----------------------|--7--7-------6---------|


  E  E  Q    Q    Q       E  E  Q    Q    Q       E  E  Q    Q    Q     
-----------------------|-----------------------|-----------------------|
-----------------------|-----------------------|-----------------------|
--------7---------7----|-----------------------|--------7---------7----|
-----7-------7---------|--------8---------8----|-----7-------7---------|
--5--------------------|--7--7-------6---------|--5--------------------|
-----------------------|-----------------------|-----------------------|


  E  E  Q    Q    Q       Q    H         Q      
-----------------------|----------------------||
-----------------------|----------------------||
-----------------------|----------------------||
-----------------------|--7----L\-------------||
--------8---------8----|--5----L\-------------||
--7--7-------6---------|--5----L\-------------||


                                  Temptation                                    


     W                   W                   W                 
D||-------------------|-------------------|-------------------|
A||-------------------|-------------------|-------------------|
F||-------------------|-------------------|-------------------|
C||-------------------|-------------------|-------------------|
G||-------------------|-------------------|-------------------|
D||-------------------|-------------------|-------------------|


  W                   W                   W                   W                 
-------------------|-------------------|-------------------|-------------------|
-------------------|-------------------|-------------------|-------------------|
-------------------|-------------------|-------------------|-------------------|
-------------------|-------------------|-------------------|-------------------|
-------------------|-------------------|-------------------|-------------------|
-------------------|-------------------|-------------------|-------------------|


  W                   W                   W                   W                 
-------------------|-------------------|-------------------|-------------------|
-------------------|-------------------|-------------------|-------------------|
-------------------|-------------------|-------------------|-------------------|
-------------------|-------------------|-------------------|-------------------|
-------------------|-------------------|-------------------|-------------------|
-------------------|-------------------|-------------------|-------------------|


  W                   H        Q.      E     W                 
-------------------|----------------------|-------------------|
-------------------|----------------------|--L----------------|
-------------------|----------------------|--L----------------|
-------------------|--5--------8------10--|--L----------------|
-------------------|--3--------6-------8--|--L----------------|
-------------------|--3--------6-------8--|--L----------------|


  H        Q.      E     W                    W                 
----------------------|-------------------|--------------------|
----------------------|-------------------|--------------------|
----------------------|-------------------|--------------------|
--5--------8------10--|--L----------------|--10----------------|
--3--------6-------8--|--L----------------|---8----------------|
--3--------6-------8--|--L----------------|---8----------------|


  E  E  E  E  E  E  E  E     E  E  E  E  E  E  E  E   
--------------------------|--------------------------|
--------------------------|--------------------------|
--------------------------|--------------------------|
--8--7-----3-----5--------|--------5-----------5-----|
--6--5-----1-----3--------|--------3-----------3-----|
--6--5--0--1--0--3--0--0--|--0--0--3--0--0--0--3--0--|


  E  E  E  E  E  E  E  E     E  E  E  E  E  E  E  E   
--------------------------|--------------------------|
--------------------------|--------------------------|
--------------------------|--------------------------|
--8--5-----3-----5-----2--|--L-----------------------|
--6--7-----1-----3-----0--|--L-----------------------|
--6--7--0--1--0--3--0--0--|--L--0--0--0--0--0--0--0--|


  E  E  E  E  E  E  E  E     E  E  E  E  E  E  E  E   
--------------------------|--------------------------|
--------------------------|--------------------------|
--------------------------|--------------------------|
--8--7-----3-----5--------|--------5-----------5-----|
--8--5-----1-----3--------|--------3-----------3-----|
--6--5--0--1--0--3--0--0--|--0--0--3--0--0--0--3--0--|


  E  E  E  E  E  E  E  E     E  E  E  E  E  E  E  E   
--------------------------|--------------------------|
--------------------------|--------------------------|
--------------------------|--------------------------|
--8--7-----3-----5-----2--|--L-----------------------|
--6--5-----1-----3-----0--|--L-----------------------|
--6--5--0--1--0--3--0--0--|--L--0--0--0--0--0--0--0--|


  E  E  E  E  E  E  E  E     E  E  E  E  E  E  E  E   
--------------------------|--------------------------|
--------------------------|--------------------------|
--------------------------|--------------------------|
--8--7-----3-----5--------|--------5-----------5-----|
--6--5-----1-----3--------|--------3-----------3-----|
--6--5--0--1--0--3--0--0--|--0--0--3--0--0--0--3--0--|


  E  E  E  E  E  E  E  E     E  E  E  E  E  E  E  E   
--------------------------|--------------------------|
--------------------------|--------------------------|
--------------------------|--------------------------|
--8--7-----3-----5-----2--|--L-----------------------|
--6--5-----1-----3-----0--|--L-----------------------|
--6--5--0--1--0--3--0--0--|--L--0--0--0--0--0--0--0--|


  E  E  E  E  E  E  E  E     E  E  E  E  E  E  E  E   
--------------------------|--------------------------|
--------------------------|--------------------------|
--------------------------|--------------------------|
--8--7-----3-----5--------|--------5-----------5-----|
--6--5-----1-----3--------|--------3-----------3-----|
--6--5--0--1--0--3--0--0--|--0--0--3--0--0--0--3--0--|


  E  E  E  E  E  E  E  E     E  E  E  E  E  E  E  E      W                 
--------------------------|--------------------------|--------------------|
--------------------------|--------------------------|--------------------|
--------------------------|--------------------------|--------------------|
--8--7-----3-----5-----2--|--L-----------------------|--10----------------|
--6--5-----1-----3-----0--|--L-----------------------|---8----------------|
--6--5--0--1--0--3--0--0--|--L--0--0--0--0--0--0--0--|---8----------------|


  W                    W                   W                 
-------------------|--------------------|-------------------|
-------------------|--------------------|-------------------|
-------------------|--------------------|-------------------|
--6----------------|--10----------------|--6----------------|
--4----------------|---8----------------|--4----------------|
--4----------------|---8----------------|--4----------------|


   W                   W                    W                 
--------------------|-------------------|--------------------|
--------------------|-------------------|--------------------|
--------------------|-------------------|--------------------|
--10----------------|--6----------------|--10----------------|
---8----------------|--4----------------|---8----------------|
---8----------------|--4----------------|---8----------------|


  W                   W                   W                   W                 
-------------------|-------------------|-------------------|-------------------|
-------------------|-------------------|-------------------|-------------------|
-------------------|-------------------|-------------------|-------------------|
--6----------------|-------------------|-------------------|-------------------|
--4----------------|-------------------|-------------------|-------------------|
--4----------------|-------------------|-------------------|-------------------|


  W                   W                   W                   W                 
-------------------|-------------------|-------------------|-------------------|
-------------------|-------------------|-------------------|-------------------|
-------------------|-------------------|-------------------|-------------------|
-------------------|-------------------|-------------------|-------------------|
-------------------|-------------------|-------------------|-------------------|
-------------------|-------------------|-------------------|-------------------|


  W                   W                   W                   W                 
-------------------|-------------------|-------------------|-------------------|
-------------------|-------------------|-------------------|-------------------|
-------------------|-------------------|-------------------|-------------------|
-------------------|-------------------|-------------------|-------------------|
-------------------|-------------------|-------------------|-------------------|
-------------------|-------------------|-------------------|-------------------|


  W                   H        Q.      E     W                 
-------------------|----------------------|-------------------|
-------------------|----------------------|-------------------|
-------------------|----------------------|-------------------|
-------------------|--5--------8------10--|--L----------------|
-------------------|--3--------6-------8--|--L----------------|
-------------------|--3--------6-------8--|--L----------------|


  H        Q.      E     W                   E  E  E  E  E  E  E  E   
----------------------|-------------------|--------------------------|
----------------------|-------------------|--------------------------|
----------------------|-------------------|--------------------------|
--5--------8------10--|--L----------------|--8--7-----3-----5--------|
--3--------6-------8--|--L----------------|--6--5-----1-----3--------|
--3--------6-------8--|--L----------------|--6--5--0--1--0--3--0--0--|


  E  E  E  E  E  E  E  E     E  E  E  E  E  E  E  E   
--------------------------|--------------------------|
--------------------------|--------------------------|
--------------------------|--------------------------|
--------5-----------5-----|--8--7-----3-----5-----2--|
--------3-----------3-----|--6--5-----1-----3-----0--|
--0--0--3--0--0--0--3--0--|--6--5--0--1--0--3--0--0--|


  E  E  E  E  E  E  E  E     E  E  E  E  E  E  E  E   
--------------------------|--------------------------|
--------------------------|--------------------------|
--------------------------|--------------------------|
--L-----------------------|--8--7-----3-----5--------|
--L-----------------------|--6--5-----1-----3--------|
--L--0--0--0--0--0--0--0--|--6--5--0--1--0--3--0--0--|


  E  E  E  E  E  E  E  E     E  E  E  E  E  E  E  E   
--------------------------|--------------------------|
--------------------------|--------------------------|
--------------------------|--------------------------|
--------5-----------5-----|--8--7-----3-----5-----2--|
--------3-----------3-----|--6--5-----1-----3-----0--|
--0--0--3--0--0--0--3--0--|--6--5--0--1--0--3--0--0--|


  E  E  E  E  E  E  E  E   
--------------------------|
--------------------------|
--------------------------|
--L-----------------------|
--L-----------------------|
--L--0--0--0--0--0--0--0--|


  T T T T T T T T T T T T T T T T T T T T T T T T T T T T T T T T  
------3-3-8-8---------3-3-8-8---------3-3-8-8---------3-3-8-8-----|
--1-----------8-8-------------8-8-------------8-8-------------8-8-|
--5-5-------------5-5-------------5-5-------------5-5-------------|
--5---------------------------------------------------------------|
--3---------------------------------------------------------------|
------------------------------------------------------------------|


  T T T T T T T T T T T T T T T T T T T T  T  T  T  T T T T T  T  T  T  T  
------3-3-8-8---------3-3-8-8---------6-6-11-11-----------6-6-11-11-------|
--------------8-8-------------8-8-4-------------11-11---------------11-11-|
--5-5-------------5-5-------------8-8-----------------8-8-----------------|
--6-------------------------------8---------------------------------------|
--6-------------------------------6---------------------------------------|
--4-----------------------------------------------------------------------|


  T T T T T T T T T T T T T T T T T T T T  T  T  T  T  T  T  T  T  T  T  T  T  
------3-3-8-8---------3-3-8-8---------6-6-11-11-------11-11-------11-11-------|
--1-----------8-8-------------8-8---------------11-11-------11-11-------11-11-|
--5-5-------------5-5-------------8-8-----------------------------------------|
--5-------------------------------8-------------------------------------------|
--3-------------------------------8-------------------------------------------|
----------------------------------6-------------------------------------------|


   S S  S S  S  S  S  S  Q    Q        W                   H        H         
--13-8-13-8-13----13----13---------|--------------------|--------------------|
---------------13----13------------|--------------------|--------------------|
-----------------------------------|--------------------|--------------------|
---6-------------------------------|--10----------------|--6--------5--------|
---6-------------------------------|--10----------------|--6--------5--------|
---4-------------------------------|---8----------------|--4--------3--------|


   H        H           H        Q    Q       H        Q    E  E   
---------------------|---------------------|----------------------|
---------------------|---------------------|----------------------|
---------------------|----------------8----|----------------8--7--|
--10--------6--------|--5--------6----8----|--8--------6----8--7--|
--10--------6--------|--5--------6----6----|--8--------6----6--5--|
---8--------4--------|--3--------4---------|--6--------4----------|


  S Q    Q    E  E.  E     E  E  E  E  E  E  E  E     E  E  E  E  E  E  E  E   
------------------------|--------------------------|--------------------------|
------------------------|--------------------------|--------------------------|
--L-----------8--7------|--------------------------|--------------------------|
--L-6----6----8--7---6--|--L--8--7-----3-----5-----|-----------5-----------5--|
--L-6----6----6--5---6--|--L--6--5-----1-----3-----|-----------3-----------3--|
----4----4-----------4--|--L--6--5--0--1--0--3--0--|--0--0--0--3--0--0--0--3--|


  E  E  E  E  E  E  E  E     Q    E  E  E  E  E  E     E  E  E  E  E  E  E  E   
--------------------------|-------------------------|--------------------------|
--------------------------|-------------------------|--------------------------|
--------------------------|-------------------------|--------------------------|
-----8--7-----3-----5-----|--2----------------------|-----8--7-----3-----5-----|
-----6--5-----1-----3-----|--0----------------------|-----6--5-----1-----3-----|
--0--6--5--0--1--0--3--0--|--0----0--0--0--0--0--0--|--0--6--5--0--1--0--3--0--|


  E  E  E  E  E  E  E  E     E  E  E  E  E  E  E  E     Q    E  E  E  E  E  E   
--------------------------|--------------------------|-------------------------|
--------------------------|--------------------------|-------------------------|
--------------------------|--------------------------|-------------------------|
-----------5-----------5--|-----8--7-----3-----5-----|--2----------------------|
-----------3-----------3--|-----6--5-----1-----3-----|--0----------------------|
--0--0--0--3--0--0--0--3--|--0--6--5--0--1--0--3--0--|--0----0--0--0--0--0--0--|


  E  E  E  E  E  E  E  E     E  E  E  E  E  E  E  E   
--------------------------|--------------------------|
--------------------------|--------------------------|
--------------------------|--------------------------|
-----8--7-----3-----5-----|-----------5-----------5--|
-----6--5-----1-----3-----|-----------3-----------3--|
--0--6--5--0--1--0--3--0--|--0--0--0--3--0--0--0--3--|


  E  E  E  E  E  E  E  E     Q    E  E  E  E  E  E     E  E  E  E  E  E  E  E   
--------------------------|-------------------------|--------------------------|
--------------------------|-------------------------|--------------------------|
--------------------------|-------------------------|--------------------------|
-----8--7-----3-----5-----|--2----------------------|-----8--7-----3-----5-----|
-----6--5-----1-----3-----|--0----------------------|-----6--5-----1-----3-----|
--0--6--5--0--1--0--3--0--|--0----0--0--0--0--0--0--|--0--6--5--0--1--0--3--0--|


  E  E  E  E  E  E  E  E     E  E  E  E  E  E  E  E     Q    E  E  E  E  E  E   
--------------------------|--------------------------|-------------------------|
--------------------------|--------------------------|-------------------------|
--------------------------|--------------------------|-------------------------|
-----------5-----------5--|-----8--7-----3-----5-----|--2----------------------|
-----------3-----------3--|-----6--5-----1-----3-----|--0----------------------|
--0--0--0--3--0--0--0--3--|--0--6--5--0--1--0--3--0--|--0----0--0--0--0--0--0--|


  E  E  E  E  E  E  E  E     E  E  E  E  E  E  E  E   
--------------------------|--------------------------|
--------------------------|--------------------------|
--------------------------|--------------------------|
-----8--7-----3-----5-----|-----------5-----------5--|
-----6--5-----1-----3-----|-----------3-----------3--|
--0--6--5--0--1--0--3--0--|--0--0--0--3--0--0--0--3--|


  E  E  E  E  E  E  E  E     Q    E  E  E  E  E  E     E  E  E  E  E  E  E  E   
--------------------------|-------------------------|--------------------------|
--------------------------|-------------------------|--------------------------|
--------------------------|-------------------------|--------------------------|
-----8--7-----3-----5-----|--2----------------------|-----8--7-----3-----5-----|
-----6--5-----1-----3-----|--0----------------------|-----6--5-----1-----3-----|
--0--6--5--0--1--0--3--0--|--0----0--0--0--0--0--0--|--0--6--5--0--1--0--3--0--|


  E  E  E  E  E  E  E  E     E  E  E  E  E  E  E  E     Q    E  E  E  E  E  E   
--------------------------|--------------------------|-------------------------|
--------------------------|--------------------------|-------------------------|
--------------------------|--------------------------|-------------------------|
-----------5-----------5--|-----8--7-----3-----5-----|--2----------------------|
-----------3-----------3--|-----6--5-----1-----3-----|--0----------------------|
--0--0--0--3--0--0--0--3--|--0--6--5--0--1--0--3--0--|--0----0--0--0--0--0--0--|


  E  E  E  E  E  E  E  E     E  E  E  E  E  E  E  E   
--------------------------|--------------------------|
--------------------------|--------------------------|
--------------------------|--------------------------|
-----8--7-----3-----5-----|-----------5-----------5--|
-----6--5-----1-----3-----|-----------3-----------3--|
--0--6--5--0--1--0--3--0--|--0--0--0--3--0--0--0--3--|


  E  E  E  E  E  E  E  E     Q    E  E  E  E  E  E     E  E  E  E  E  E  E  E   
--------------------------|-------------------------|--------------------------|
--------------------------|-------------------------|--------------------------|
--------------------------|-------------------------|--------------------------|
-----8--7-----3-----5-----|--2----------------------|-----8--7-----3-----5-----|
-----6--5-----1-----3-----|--0----------------------|-----6--5-----1-----3-----|
--0--6--5--0--1--0--3--0--|--0----0--0--0--0--0--0--|--0--6--5--0--1--0--3--0--|


  E  E  E  E  E  E  E  E     E  E  E  E  E  E  E  E     Q    E  E  E  E  E  E   
--------------------------|--------------------------|-------------------------|
--------------------------|--------------------------|-------------------------|
--------------------------|--------------------------|-------------------------|
-----------5-----------5--|-----8--7-----3-----5-----|--2----------------------|
-----------3-----------3--|-----6--5-----1-----3-----|--0----------------------|
--0--0--0--3--0--0--0--3--|--0--6--5--0--1--0--3--0--|--0----0--0--0--0--0--0--|


  E  H        Q    E                                              
----------------------|-----|-----|-----|-----|-----|-----|-----||
----------------------|-----|-----|-----|-----|-----|-----|-----||
----------------------|-----|-----|-----|-----|-----|-----|-----||
----------------------|-----|-----|-----|-----|-----|-----|-----||
----------------------|-----|-----|-----|-----|-----|-----|-----||
--0-------------------|-----|-----|-----|-----|-----|-----|-----||
comments
We did not receive enough feedback on this tab! Please rate:
print report bad tab
1 2 3 4 5
I want to post or [tab]
guest
You may want to rate the tab now too:
select rating
Please do not post tabs as comments. Select "correction" instead!