Oops, an error
Loading. Please wait.

To Eve The Art Of Witchcraft Bass Tab

91 views 1 this week
no commentswrite comment
1 2 3 4 5
please rate
Autoscroll
+/-
esc
set tempo
stop
Contributor
Difficulty
novice
WARNING: You are trying to view
                                    content from Ultimate-Guitar.com
                                    in an unauthorized application,
                                    which is prohibited.

                                    Please use an official Ultimate
                                    Guitar Tabs application for iPhone,
                                    iPad or Android to access legitimate
                                    chords, guitar, bass, and drum tabs
                                    from Ultimate-Guitar.com database.

                                    Type "ultimate guitar tabs" in Apple
                                    App Store's or Android Market's
                                    search to find the application.
Cradle of Filth - To Eve the Art of Witchcraft bass tab off The Principle of Evil Made 
in 1994


tune down
F
C
G
D

-----------------------|----------------------------------|
-----------------------|----------------------------------|
-----------------------|----------------------------------|
--------4--0--0--0--0--|--1-1-1-1-1-1-4-4-0-0-0-0-0-0-4-4-|

------------------------------|----------------------------------|
------------------------------|----------------------------------|
------------------------------|----------------------------------|
--1-1-1-1-1-1-4-4-0--0--0--0--|--1-1-1-1-1-1-4-4-0-0-0-0-0-0-4-4-|

------------------------------|----------------------------------|
------------------------------|----------------------------------|
------------------------------|----------------------------------|
--1-1-1-1-1-1-4-4-0--0--0--0--|--1-1-1-1-1-1-4-4-0-0-0-0-0-0-4-4-|

------------------------------|----------------------------------|
------------------------------|----------------------------------|
------------------------------|----------------------------------|
--1-1-1-1-1-1-4-4-0--0--0--0--|--1-1-1-1-1-1-4-4-0-0-0-0-0-0-4-4-|

------------------------------|----------------------------|
------------------------------|----------------------------|
------------------------------|----------------------------|
--1-1-1-1-1-1-4-4-0--0--0--0--|--1-0-1-0---4--1-0-1-0---4--|

----------------------------|----------------------------|
----------------------------|----------------------------|
----------------------------|----------------------------|
--1-0-1-0---4--1-0-1-0---4--|--1-0-1-0---4--1-0-1-0---4--|

----------------------------|-------------------|
----------------------------|-------------------|
----------------------------|-------------------|
--1-0-1-0---4--1-0-1-0---4--|--0----------------|


|---------------------------|--------------------------|
|*--0--0--0--0--0--0--0--0--|--------------------------|
|*--------------------------|--------------------------|
|---------------------------|--1--1--1--1--1--1--1--1--|

--------------------------|---------------------------|
--------------------------|--------------------------*|
--------------------------|--------------------------*|
--3--3--3--3--3--3--3--3--|--4--4--4--4--5--5--5--5---|

--------------------------|-----------||-----------------------|
--------------------------|-----------||*------------2------1--|
--------------------------|-----------||*---------2------------|
--4--4--4--4--5--5--5--5--|--0--------||---0-------------------|


           Play 3X's
-----------------------------||----------------------------|
--0-------------------------*||*---------------------------|
---------2--3-2-0-----------*||*-----------3-2-0-----------|
------------------3-5-3-2-0--||---0--------------3-5-3-2-0-|

----------------------------||-------------------------------|
---------------------------*||-------------------------------|
-----------3-2-0-----------*||---------------3-2-0-----------|
--1--------------3-5-3-2-0--||--0--0-0--0--0-------3-5-3-2-0-|

-------------------------------|-------------------------------|
-------------------------------|-------------------------------|
---------------3-2-0-----------|---------------3-2-0-----------|
--1--1-1--1--1-------3-5-3-2-0-|--0--0-0--0--0-------3-5-3-2-0-|

-------------------------------|------|-----------------------|
-------------------------------|------|-----------------------|
---------------3-2-0-----------|------|-----------------------|
--1--1-1--1--1-------3-5-3-2-0-|------|--------4--0--0--0--0--|

----------------------------------|------------------------------|
----------------------------------|------------------------------|
----------------------------------|------------------------------|
--1-1-1-1-1-1-4-4-0-0-0-0-0-0-4-4-|--1-1-1-1-1-1-4-4-0--0--0--0--|

----------------------------------|------------------------------|
----------------------------------|------------------------------|
----------------------------------|------------------------------|
--1-1-1-1-1-1-4-4-0-0-0-0-0-0-4-4-|--1-1-1-1-1-1-4-4-0--0--0--0--|

----------------------------------|------------------------------|
----------------------------------|------------------------------|
----------------------------------|------------------------------|
--1-1-1-1-1-1-4-4-0-0-0-0-0-0-4-4-|--1-1-1-1-1-1-4-4-0--0--0--0--|

----------------------------------|------------------------------|
----------------------------------|------------------------------|
----------------------------------|------------------------------|
--1-1-1-1-1-1-4-4-0-0-0-0-0-0-4-4-|--1-1-1-1-1-1-4-4-0--0--0--0--|

----------------------------|----------------------------|
----------------------------|----------------------------|
----------------------------|----------------------------|
--1-0-1-0---4--1-0-1-0---4--|--1-0-1-0---4--1-0-1-0---4--|

----------------------------|----------------------------|----------|
----------------------------|----------------------------|----------|
----------------------------|----------------------------|----------|
--1-0-1-0---4--1-0-1-0---4--|--1-0-1-0---4--1-0-1-0---4--|--0-------|

--------------------|--------------------|
--------------------|--------------------|
--------------------|--------------------|
--0--------0--------|--0--------0--------|


                                                    play 2X's
--------------------|--------------------||---------------------------|
--------------------|--------------------||*--------9~---------------*|
--------------------|--------------------||*-----7-------------------*|
--0--------0--------|--0--------0--------||---0------------0--3-2-1---|

-------------------------|------------------------------|
--------9~---------------|------------------------------|
-----7-------------------|------------------------------|
--0------------0--3-2-1--|--0--0-0-0--0-0-0--0-0-3-2-1--|

------------------------------|------------------------------|
------------------------------|------------------------------|
------------------------------|------------------------------|
--0--0-0-0--0-0-0--0-0-3-2-1--|--0--0-0-0--0-0-0--0-0-3-2-1--|

------------------------------|----------------------------|
------------------------------|----------------------------|
------------------------------|----------------------------|
--0--0-0-0--0-0-0--0-0-3-2-1--|--5---5-5---5-5---5-5-5-5-5-|

--------------------|------------------------------|
--------------------|------------------------------|
--------------------|------------------------------|
--3--------3--------|--0--0-0-0--0-0-0--0-0-3-2-1--|

------------------------------|----------------------------|
------------------------------|----------------------------|
------------------------------|----------------------------|
--0--0-0-0--0-0-0--0-0-3-2-1--|--5---5-5---5-5---5-5-5-5-5-|

--------------------|------------------------------|
--------------------|------------------------------|
--------------------|------------------------------|
--3--------3--------|--0--0-0-0--0-0-0--0-0-3-2-1--|

------------------------------||--------------------------|
------------------------------||*--------9~---------------|
------------------------------||*-----7-------------------|
--0--0-0-0--0-0-0--0-0-3-2-1--||---0------------0--3-2-1--|

--------------------------||------------------------------------|
--------9~---------------*||*----------------------------------*|
-----7-------------------*||*----------------------------------*|
--0------------0--3-2-1---||---0-0-0-0-0-0-0-0-0-0-0-0-0-0-0-0--|

-------------------|
-------------------|
-------------------|
--0----------------|

------------------|----------------------|----------------------|
------------------|------------------0---|------------------0---|
------------------|----------------------|----------------------|
------------------|--0--------0--0-------|--0--------0--0-------|

----------------------|----------------------|----------------------|
------------------0---|------------------0---|------------------0---|
--3--------3--3-------|--3--------3--3-------|----------------------|
----------------------|----------------------|--0--------0--0-------|

----------------------|---------------------------|-------------------|
------------------0---|---------------------------|-------------------|
----------------------|--3--------3-2-3-2-3-2-3-2-|--3--------3-------|
--0--------0--0-------|---------------------------|-------------------|

-----------------------------|-----------------------------|
-----------------------------|-----------------------------|
--7------7------7----7---5-5-|--7------7------7----7---5-5-|
-----0-0----0-0----0---------|-----0-0----0-0----0---------|

----------------------------|----------------------------|
--5------5------5-----------|--5------5------5-----------|
-----3-3----3-3----3-3---2--|-----3-3----3-3----3-3---5--|
----------------------------|----------------------------|

-----------------------------|-----------------------------|
-----------------------------|-----------------------------|
--7------7------7----7---5-5-|--7------7------7----7---5-5-|
-----0-0----0-0----0---------|-----0-0----0-0----0---------|

------------------------------------------------------------|
--5------5------5------------5------5------5----------------|
-----3-3----3-3----3-3---2------3-3----3-3----3-3---5-------|
--------------------------------------------------------0---|
comments
We did not receive enough feedback on this tab! Please rate:
1 2 3 4 5
I want to post or [tab]
guest
You may want to rate the tab now too:
select rating
Please do not post tabs as comments. Select "correction" instead!