Oops, an error
Loading. Please wait.

Tonight In Flames Bass Tab

ver1
ver1

Whole song

More versions @911Tabs.com
2,046 views 1 this week
1 commentread comment
1 2 3 4 5
excellent!
x 2
Autoscroll
+/-
esc
set tempo
stop
Contributor
Difficulty
WARNING: You are trying to view
                                    content from Ultimate-Guitar.com
                                    in an unauthorized application,
                                    which is prohibited.

                                    Please use an official Ultimate
                                    Guitar Tabs application for iPhone,
                                    iPad or Android to access legitimate
                                    chords, guitar, bass, and drum tabs
                                    from Ultimate-Guitar.com database.

                                    Type "ultimate guitar tabs" in Apple
                                    App Store's or Android Market's
                                    search to find the application.
--------------------------------------------------------------------------------------
			     Tonight in Flames - Cradle of Filth
--------------------------------------------------------------------------------------

Tabbed By: Vincent San Miguel

Dave Pybus uses a five string bass.

Tuning: FCGDA One step down

Tempo: 170
4/4
    Q    E  E  H        Q    Q    E  Q    E    Q    E  E  H
F||--------------------|---------------------|--------------------|
C||o-------------------|---------------------|--------------------|
G||--------------------|---------------------|--------------------|
D||o0----0--0----------|1----1----1--3b5r-1--|-0----0--0----------|
A||--------------------|---------------------|--------------------|

 Q    Q    E  E  E  E  4x
|----------------------||
|---------------------o||
|----------3-----------||
|1----1-------4--1--3-o||
|----------------------||

   Q    Q    Q    Q      Q    Q    Q    Q   4x
||---------------------|--------------------||
||o--------------------|-------------------o||
||---------------------|--------------------||
||o2----2----2----2----|-1----1----1----1--o||
||---------------------|--------------------||

   E E  E  E  E  E  E  E    E E  E  E E  E  E E    E E  E  E  E  E  E  E  
||------------------------|----------------------|------------------------|
||o-----------------------|----------------------|------------------------|
||-7s5--------------------|-7p5-----7h8-----8p7--|-7s5--------------------|
||o-----0--0--0--0--0--0--|------0-------0-------|------0--0--0--0--0--0--|
||------------------------|----------------------|------------------------|

  E E  E  E  E  E  E E    E E  E  E  E  E  E  E    E  E  E  E E  E  E E
|-----------------------|------------------------|------------------------|
|-----------------------|------------------------|------------------------|
|-8p7-----8h10-----8p7--|-7s5--------------------|-7--5-----7h8-----8p7---|
|------0--------0-------|------0--0--0--0--0--0--|-------0-------0--------|
|-----------------------|------------------------|------------------------|

  E E  E  E  E  E  E  E    E E  E   Q     E   E  E
|------------------------|--------------------------||
|------------------------|-------------------------o||
|-7s5--------------------|---------10----10--10--9--||
|------0--0--0--0--0--0--|-8p7--0------------------o||
|------------------------|--------------------------||

  E  E  E  E  E  E  E  E    E  E  E  E  E  E  E  E
||-------------------------|-------------------------|
||o------------------------|-7--7--7--7--7--7--8--7--|
||-5--5--5--5--5--5--5--8--|-------------------------|
||o------------------------|-------------------------|
||-------------------------|-------------------------|

  E  E  E  E  E  E  E  E    E  E  E  E  E  E  E  E  3x
|-------------------------|-5-----------------------||
|-5--5--5--5--5--5--5--5--|----8--7--8--7--5--7--5-o||
|-------------------------|-------------------------||
|-------------------------|------------------------o||
|-------------------------|-------------------------||

  E  E  E  E  E  E  E  E    E  E  E  E  E  E  E  E    H        H
|-------------------------|-------------------------|--------------------|
|-------------------------|-7--7--7--7--7--7--8--7--|-5------------------|
|-5--5--5--5--5--5--5--8--|-------------------------|----------8\--------|
|-------------------------|-------------------------|--------------------|
|-------------------------|-------------------------|--------------------|

                             Not sure if this part is exactally correct
  E  E  S S E  E  E  S S E    Q    Q    Q    Q      Q    Q    Q    Q
|---------------------------|---------------------|---------------------|
|---------------------------|------5----4----5----|-7----5----4----5----|
|---------------------------|-7-------------------|---------------------|
|-0--0--0-0-0--0--0--0-0-0--|---------------------|---------------------|
|---------------------------|---------------------|---------------------|

  Q    Q    Q    Q      Q    Q    Q    Q      Q    Q    Q    Q
|---------------------|-4-------------------|---------------------|
|------5----4----5----|------5----4----5----|------5----4----5----|
|-7-------------------|---------------------|-7-------------------|
|---------------------|---------------------|---------------------|
|---------------------|---------------------|---------------------|

  Q    Q    Q    Q      Q    Q    Q    Q      Q    Q    Q    Q
|---------------------|-4-------------------|-5----4--------------|
|-7----5----4----5----|------7----8---------|-----------5----4----|
|---------------------|----------------7----|---------------------|
|---------------------|---------------------|---------------------|
|---------------------|---------------------|---------------------|

  Q    Q    Q    Q      Q    Q    Q    Q      Q    Q    Q    Q
|---------------------|---------------------|---------------------|
|------5----4----5----|-7----5----4----5----|------5----4----5----|
|-7-------------------|---------------------|-7-------------------|
|---------------------|---------------------|---------------------|
|---------------------|---------------------|---------------------|

  Q    Q    Q    Q      Q    Q    Q    Q      Q    Q    Q    Q
|-4-------------------|---------------------|---------------------|
|------5----4----5----|------5----4----5----|-7----5----4----5----|
|---------------------|-7-------------------|---------------------|
|---------------------|---------------------|---------------------|
|---------------------|---------------------|---------------------|

  Q    Q    Q    Q      Q    Q    E  E  E  E     E E  E  E  E  E  E  E
|-4-------------------|-5----4----------------||------------------------|
|------7----5---------|-----------4--5--4--5--||o-----------------------|
|----------------7----|-----------------------||-7s5--------------------|
|---------------------|-----------------------||o-----0--0--0--0--0--0--|
|---------------------|-----------------------||------------------------|

  E E  E  E E  E  E E    E E  E  E  E  E  E  E    E E  E  E  E  E  E E
|----------------------|------------------------|-----------------------|
|----------------------|------------------------|-----------------------|
|-7p5-----7h8-----8p7--|-7s5--------------------|-8p7-----8h10-----8p7--|
|------0-------0-------|------0--0--0--0--0--0--|------0--------0-------|
|----------------------|------------------------|-----------------------|

  E E  E  E  E  E  E  E    E  E  E  E E  E  E E    E E  E  E  E  E  E  E
|------------------------|-----------------------|------------------------|
|------------------------|-----------------------|------------------------|
|-7s5--------------------|-7--5-----7h8-----8p7--|-7s5--------------------|
|------0--0--0--0--0--0--|-------0-------0-------|------0--0--0--0--0--0--|
|------------------------|-----------------------|------------------------|

  E E  E   Q     E   E  E  
|--------------------------||
|-------------------------o||
|---------10----10--10--9--||
|-8p7--0------------------o||
|--------------------------||

  E  E  E  E  E  E  E  E    E  E  E  E  E  E  E  E
||-------------------------|-------------------------|
||o------------------------|-7--7--7--7--7--7--8--7--|
||-5--5--5--5--5--5--5--8--|-------------------------|
||o------------------------|-------------------------|
||-------------------------|-------------------------|

  E  E  E  E  E  E  E  E    E  E  E  E  E  E  E  E  3x
|-------------------------|-5-----------------------||
|-5--5--5--5--5--5--5--5--|----8--7--8--7--5--7--5-o||
|-------------------------|-------------------------||
|-------------------------|------------------------o||
|-------------------------|-------------------------||

  E  E  E  E  E  E  E  E    E  E  E  E  E  E  E  E    H        H
|-------------------------|-------------------------|--------------------|
|-------------------------|-7--7--7--7--7--7--8--7--|-5------------------|
|-5--5--5--5--5--5--5--8--|-------------------------|----------8\--------|
|-------------------------|-------------------------|--------------------|
|-------------------------|-------------------------|--------------------|

                            Again Not sure if this part is exactally correct
  E  E  S S E  E  E  S S E    Q    Q    Q    Q      Q    Q    Q    Q
|---------------------------|---------------------|---------------------|
|---------------------------|------5----4----5----|-7----5----4----5----|
|---------------------------|-7-------------------|---------------------|
|-0--0--0-0-0--0--0--0-0-0--|---------------------|---------------------|
|---------------------------|---------------------|---------------------|

  Q    Q    Q    Q      Q    Q    Q    Q      Q    Q    Q    Q
|---------------------|-4-------------------|---------------------|
|------5----4----5----|------5----4----5----|------5----4----5----|
|-7-------------------|---------------------|-7-------------------|
|---------------------|---------------------|---------------------|
|---------------------|---------------------|---------------------|

  Q    Q    Q    Q      Q    Q    Q    Q      Q    Q    Q    Q
|---------------------|-4-------------------|-5----4--------------|
|-7----5----4----5----|------7----8---------|-----------5----4----|
|---------------------|----------------7----|---------------------|
|---------------------|---------------------|---------------------|
|---------------------|---------------------|---------------------|

  Q    Q    Q    Q      Q    Q    Q    Q      Q    Q    Q    Q
|---------------------|---------------------|---------------------|
|------5----4----5----|-7----5----4----5----|------5----4----5----|
|-7-------------------|---------------------|-7-------------------|
|---------------------|---------------------|---------------------|
|---------------------|---------------------|---------------------|

  Q    Q    Q    Q      Q    Q    Q    Q      Q    Q    Q    Q
|-4-------------------|---------------------|---------------------|
|------5----4----5----|------5----4----5----|-7----5----4----5----|
|---------------------|-7-------------------|---------------------|
|---------------------|---------------------|---------------------|
|---------------------|---------------------|---------------------|

  Q    Q    Q    Q      Q    Q    H
|-4-------------------|-5----4------------|
|------7----5---------|-------------------|
|----------------7----|-------------------|
|---------------------|-------------------|
|---------------------|-------------------|

   Q    Q    Q    Q      Q    Q    Q    Q   4x
||---------------------|--------------------||
||o--------------------|-------------------o||
||---------------------|--------------------||
||o2----2----2----2----|-1----1----1----1--o||
||---------------------|--------------------||

   W               32x E  E  Q    Q    Q      E  E  Q    E  E  Q    
||------------------||----------------------|-----------------------|
||o----------------o||----------------------|-----------------------|
||------------------||-5-----8--------------|-----------------------|
||o----------------o||----6-------6----7----|-------7----------6----|
||------------------||----------------------|-0--0-------0--0-------|

   Q    E  E  H        Q    Q    E  Q    E    Q    E  E  H
||--------------------|---------------------|--------------------|
||o-------------------|---------------------|--------------------|
||--------------------|---------------------|--------------------|
||o0----0--0----------|1----1----1--3b5r-1--|-0----0--0----------|
||--------------------|---------------------|--------------------|

 Q    Q    E  E  E  E  4x
|----------------------||
|---------------------o||
|----------3-----------||
|1----1-------4--1--3-o||
|----------------------||

   Q    Q    Q    Q      Q    Q    Q    Q   4x
||---------------------|--------------------||
||o--------------------|-------------------o||
||---------------------|--------------------||
||o2----2----2----2----|-1----1----1----1--o||
||---------------------|--------------------||

   E E  E  E  E  E  E  E    E E  E  E E  E  E E    E E  E  E  E  E  E  E  
||------------------------|----------------------|------------------------|
||o-----------------------|----------------------|------------------------|
||-7s5--------------------|-7p5-----7h8-----8p7--|-7s5--------------------|
||o-----0--0--0--0--0--0--|------0-------0-------|------0--0--0--0--0--0--|
||------------------------|----------------------|------------------------|

  E E  E  E  E  E  E E    E E  E  E  E  E  E  E    E  E  E  E E  E  E E
|-----------------------|------------------------|------------------------|
|-----------------------|------------------------|------------------------|
|-8p7-----8h10-----8p7--|-7s5--------------------|-7--5-----7h8-----8p7---|
|------0--------0-------|------0--0--0--0--0--0--|-------0-------0--------|
|-----------------------|------------------------|------------------------|

  E E  E  E  E  E  E  E    E E  E   Q     E   E  E
|------------------------|--------------------------||
|------------------------|-------------------------o||
|-7s5--------------------|---------10----10--10--9--||
|------0--0--0--0--0--0--|-8p7--0------------------o||
|------------------------|--------------------------||

  E  E  E  E  E  E  E  E    E  E  E  E  E  E  E  E
||-------------------------|-------------------------|
||o------------------------|-7--7--7--7--7--7--8--7--|
||-5--5--5--5--5--5--5--8--|-------------------------|
||o------------------------|-------------------------|
||-------------------------|-------------------------|

  E  E  E  E  E  E  E  E    E  E  E  E  E  E  E  E  3x
|-------------------------|-5-----------------------||
|-5--5--5--5--5--5--5--5--|----8--7--8--7--5--7--5-o||
|-------------------------|-------------------------||
|-------------------------|------------------------o||
|-------------------------|-------------------------||

  E  E  E  E  E  E  E  E    E  E  E  E  E  E  E  E    H        H
|-------------------------|-------------------------|--------------------|
|-------------------------|-7--7--7--7--7--7--8--7--|-5------------------|
|-5--5--5--5--5--5--5--8--|-------------------------|----------8\--------|
|-------------------------|-------------------------|--------------------|
|-------------------------|-------------------------|--------------------|

                            Again Not sure if this part is exactally correct
  E  E  S S E  E  E  S S E    Q    Q    Q    Q      Q    Q    Q    Q
|---------------------------|---------------------|---------------------|
|---------------------------|------5----4----5----|-7----5----4----5----|
|---------------------------|-7-------------------|---------------------|
|-0--0--0-0-0--0--0--0-0-0--|---------------------|---------------------|
|---------------------------|---------------------|---------------------|

  Q    Q    Q    Q      Q    Q    Q    Q      Q    Q    Q    Q
|---------------------|-4-------------------|---------------------|
|------5----4----5----|------5----4----5----|------5----4----5----|
|-7-------------------|---------------------|-7-------------------|
|---------------------|---------------------|---------------------|
|---------------------|---------------------|---------------------|

  Q    Q    Q    Q      Q    Q    Q    Q      Q    Q    Q    Q
|---------------------|-4-------------------|-5----4--------------|
|-7----5----4----5----|------7----8---------|-----------5----4----|
|---------------------|----------------7----|---------------------|
|---------------------|---------------------|---------------------|
|---------------------|---------------------|---------------------|

  Q    Q    Q    Q      Q    Q    Q    Q      Q    Q    Q    Q
|---------------------|---------------------|---------------------|
|------5----4----5----|-7----5----4----5----|------5----4----5----|
|-7-------------------|---------------------|-7-------------------|
|---------------------|---------------------|---------------------|
|---------------------|---------------------|---------------------|

  Q    Q    Q    Q      Q    Q    Q    Q      Q    Q    Q    Q
|-4-------------------|---------------------|---------------------|
|------5----4----5----|------5----4----5----|-7----5----4----5----|
|---------------------|-7-------------------|---------------------|
|---------------------|---------------------|---------------------|
|---------------------|---------------------|---------------------|

  Q    Q    Q    Q      Q    Q    S S S S E  E
|-4-------------------|-5----4------------------|
|------7----5---------|-----------5-4-5-4-------|
|----------------7----|-------------------7--5--|
|---------------------|-------------------------|
|---------------------|-------------------------|

  E  E  E  E  E  E  E  E    E  E  E  E  E  E  E  E  
|-------------------------|-------------------------|
|-------5--5--4--4--5--5--|-7--7--5--5--4--4--5--5--|
|-7--7--------------------|-------------------------|
|-------------------------|-------------------------|
|-------------------------|-------------------------|

  E  E  E  E  E  E  E  E    E  E  E  E  E  E  E  E  
|-------------------------|-4--4--------------------|
|-------5--5--4--4--5--5--|-------5--5--4--4--5--5--|
|-7--7--------------------|-------------------------|
|-------------------------|-------------------------|
|-------------------------|-------------------------|

  E  E  E  E  E  E  E  E    E  E  E  E  E  E  E  E  
|-------------------------|-------------------------|
|-------5--5--4--4--5--5--|-7--7--5--5--4--4--5--5--|
|-7--7--------------------|-------------------------|
|-------------------------|-------------------------|
|-------------------------|-------------------------|

  E  E  E  E  E  E  E  E    E  E  E  E  S S S S E  E  
|-4--4--------------------|-5--5--4--4----------------|
|-------7--7--5--5--------|-------------5p4h5p4-------|
|-------------------7--7--|---------------------7--5--|
|-------------------------|---------------------------|
|-------------------------|---------------------------|

  S S S S S S S S S S S S S S S S   S S S S S S S S S S S S S S S S
|---------------------------------|---------------------------------|
|---------5-5-5-5-4-4-4-4-5-5-5-5-|-7-7-7-7-5-5-5-5-4-4-4-4-5-5-5-5-|
|-7-7-7-7-------------------------|---------------------------------|
|---------------------------------|---------------------------------|
|---------------------------------|---------------------------------|

  S S S S S S S S S S S S S S S S   S S S S S S S S S S S S S S S S 
|---------------------------------|-4-4-4-4-------------------------|
|---------5-5-5-5-4-4-4-4-5-5-5-5-|---------5-5-5-5-4-4-4-4-5-5-5-5-|
|-7-7-7-7-------------------------|---------------------------------|
|---------------------------------|---------------------------------|
|---------------------------------|---------------------------------|

  S S S S S S S S S S S S S S S S   S S S S S S S S S S S S S S S S
|---------------------------------|---------------------------------|
|---------5-5-5-5-4-4-4-4-5-5-5-5-|-7-7-7-7-5-5-5-5-4-4-4-4-5-5-5-5-|
|-7-7-7-7-------------------------|---------------------------------|
|---------------------------------|---------------------------------|
|---------------------------------|---------------------------------|

  S S S S S S S S S S S S S S S S   Q    Q    E  E  Q    
|-4-4-4-4-------------------------|-5----4---------------|
|---------7-7-7-7-4-4-4-4---------|-----------7--5--7----|
|-------------------------7-7-7-7-|----------------------|
|---------------------------------|----------------------|
|---------------------------------|----------------------|

  Q    H+      Q
|------------------|
|------------------|
|-7---(7)\---------|
|------------------|
|------------------|


Duration Legend
---------------
W - whole; H - half; Q - quarter; E - 8th; S - 16th; T - 32nd; X - 64th; a - acciaccatura
+ - note tied to previous; . - note dotted; .. - note double dotted
Uncapitalized letters represent notes that are staccato (1/2 duration)
Irregular groupings are notated above the duration line
Duration letters will always appear directly above the note/fret number it represents the
duration for.  Duration letters with no fret number below them represent rests.  Multi-
bar rests are notated in the form Wxn, where n is the number of bars to rest for.  Low
melody durations appear below the staff

Tablature Legend
----------------
 h   - hammer-on
 p   - pull-off
 b   - bend
 pb  - pre-bend
 r   - bend release (if no number after the r, then release immediately)
 /\  - slide into or out of (from/to "nowhere")
 s   - legato slide
 S   - shift slide
 - natural harmonic
[n]  - artificial harmonic
n(n) - tapped harmonic
 ~   - vibrato
 tr  - trill
 T   - tap
 TP  - trem. picking
 PM  - palm muting
\n/  - tremolo bar dip; n = amount to dip
 \n  - tremolo bar down
 n/  - tremolo bar up
/n\  - tremolo bar inverted dip
 =   - hold bend; also acts as connecting device for hammers/pulls
 <> - volume swell (louder/softer)
 x   - on rhythm slash represents muted slash
 o   - on rhythm slash represents single note slash

Misc Legend
-----------
 |  - bar
||  - double bar
||o - repeat start
o|| - repeat end
*|  - double bar (ending)
 :  - bar (freetime)
 $  - Segno
 &  - Coda
Tempo markers -  = BPM(8/16=s8/s16), where s8 = swing 8ths, s16 = swing 16ths
comments
We did not receive enough feedback on this tab! Please rate:
print report bad tab
1 2 3 4 5
1 comment total.
0 reply
Necrotic wrote on August 30 2008, 11:03 pm

Excellent Tab c:

I want to post or [tab]
guest
You may want to rate the tab now too:
select rating
Please do not post tabs as comments. Select "correction" instead!