Oops, an error
Loading. Please wait.

Tonight In Flames Tab

ver2
ver2

Solo

Whole song

Interactive

More versions @911Tabs.com
8,547 views 3 this week
6 commentsread comments
1 2 3 4 5
excellent!
x 5
Autoscroll
+/-
esc
set tempo
stop
Contributor
Hey! There's an official Ultimate Guitar app which is ideal
for learning songs when you're away from computer. Get the app
WARNING: You are trying to view
                                    content from Ultimate-Guitar.com
                                    in an unauthorized application,
                                    which is prohibited.

                                    Please use an official Ultimate
                                    Guitar Tabs application for iPhone,
                                    iPad or Android to access legitimate
                                    chords, guitar, bass, and drum tabs
                                    from Ultimate-Guitar.com database.

                                    Type "ultimate guitar tabs" in Apple
                                    App Store's or Android Market's
                                    search to find the application.
All respects go to the original tabber creeperdeath
D||----------------------|-------------------------|----------------------|
A||----------------------|-------------------------|----------------------|
F||----------------------|-------------------------|----------------------|
C||--2-------------------|--3----3-----------------|--2-------------------|
G||--2-------------------|--3----3-----------------|--2-------------------|
D||--0----0--0-----------|--1----1----1--3br----1--|--0----0--0-----------|


                                PM PM                                     
  Q    Q    E  E  E  E     Q    E  E  H           Q    Q    E  Q      E   
------------------------|----------------------|-------------------------|
------------------------|----------------------|-------------------------|
------------------------|----------------------|-------------------------|
--3----3----------------|--2-------------------|--3----3-----------------|
--3----3----3-----------|--2-------------------|--3----3-----------------|
--1----1-------4--1--3--|--0----0--0-----------|--1----1----1--3br----1--|


       PM PM                                           PM PM           
  Q    E  E  H           Q    Q    E  E  E  E     Q    E  E  H         
----------------------|------------------------|----------------------|
----------------------|------------------------|----------------------|
----------------------|------------------------|----------------------|
--2-------------------|--3----3----------------|--2-------------------|
--2-------------------|--3----3----3-----------|--2-------------------|
--0----0--0-----------|--1----1-------4--1--3--|--0----0--0-----------|


                                 PM PM                                    
  Q    Q    E  Q      E     Q    E  E  H           Q    Q    E  E  E  E   
-------------------------|----------------------|------------------------|
-------------------------|----------------------|------------------------|
-------------------------|----------------------|------------------------|
--3----3-----------------|--2-------------------|--3----3----------------|
--3----3-----------------|--2-------------------|--3----3----3-----------|
--1----1----1--3br----1--|--0----0--0-----------|--1----1-------4--1--3--|


       PM PM                                            PM PM           
  Q    E  E  H           Q    Q    E  Q      E     Q    E  E  H         
----------------------|-------------------------|----------------------|
----------------------|-------------------------|----------------------|
----------------------|-------------------------|----------------------|
--2-------------------|--3----3-----------------|--2-------------------|
--2-------------------|--3----3-----------------|--2-------------------|
--0----0--0-----------|--1----1----1--3br----1--|--0----0--0-----------|


  Q    Q    E  E  E  E     Q    E  E  H            E  E  E  E  E  E  E  E   
------------------------|-----------------------|--------------------------|
------------------------|-----------------------|--------------------------|
------------------------|-------6--4--6~--------|-----7--6--7-----7--6--7--|
--3----3----------------|--4--------------------|--------------------------|
--3----3----3-----------|-----------------------|--8-----------8-----------|
--1----1-------4--1--3--|-----------------------|--------------------------|


  Q    E  E  H            E  E  E  Q     E  Q        Q    E  E  H          
-----------------------|--------------------------|-----------------------|
-----------------------|--------------------------|-----------------------|
-------6--4--6~--------|-----7--6--7~----6--4~----|-------6--4--6~--------|
--4--------------------|--------------------------|--4--------------------|
-----------------------|--8-----------------------|-----------------------|
-----------------------|--------------------------|-----------------------|


  E  E  E  E  E  E  E  E     Q    E  E  H            E  E  E  E  E  E  E  E   
--------------------------|-----------------------|--------------------------|
--------------------------|-----------------------|-----------------6--5--6--|
-----7--6--7-----7--6--7--|-------6--4--6~--------|-----7--6--7--6-----------|
--------------------------|--4--------------------|--------------------------|
--8-----------8-----------|-----------------------|--8-----------------------|
--------------------------|-----------------------|--------------------------|


                              PM         PM          
  W                    E   E  E  E    E  E   E   E   
--------------------|-------------------------------|
--5~----------------|-------------------------------|
--------------------|-------------------------------|
--------------------|--9s--7-----9s--10-----10s--9--|
--------------------|--7s--5-----7s---8------8s--7--|
--------------------|---------0----------0----------|


         PM PM PM PM PM PM            PM          PM          
  E   E  E  E  E  E  E  E      E   E  E   E    E  E   E   E   
---------------------------|---------------------------------|
---------------------------|---------------------------------|
---------------------------|---------------------------------|
--9s--7--------------------|--10s--9-----10s--12-----10s--9--|
--7s--5--------------------|---8s--7------8s--10------8s--7--|
---------0--0--0--0--0--0--|----------0-----------0----------|


         PM PM PM PM PM PM           PM         PM          
  E   E  E  E  E  E  E  E     E   E  E  E    E  E   E   E   
---------------------------|-------------------------------|
---------------------------|-------------------------------|
---------------------------|-------------------------------|
--9s--7--------------------|--9s--7-----9s--10-----10s--9--|
--7s--5--------------------|--7s--5-----7s---8------8s--7--|
---------0--0--0--0--0--0--|---------0----------0----------|


         PM PM PM PM PM PM            PM                     
  E   E  E  E  E  E  E  E      E   E  E   E  E   E   E   E   
---------------------------|--------------------------------|
---------------------------|--------------------------------|
---------------------------|--------------------------------|
--9s--7--------------------|-------------12--L--12--12--11--|
--7s--5--------------------|--10s--9-----10--L--10--10---9--|
---------0--0--0--0--0--0--|---8s--7--0---------------------|


         PM PM PM PM PM PM           PM         PM          
  E   E  E  E  E  E  E  E     E   E  E  E    E  E   E   E   
---------------------------|-------------------------------|
---------------------------|-------------------------------|
---------------------------|-------------------------------|
--9s--7--------------------|--9s--7-----9s--10-----10s--9--|
--7s--5--------------------|--7s--5-----7s---8------8s--7--|
---------0--0--0--0--0--0--|---------0----------0----------|


         PM PM PM PM PM PM            PM          PM          
  E   E  E  E  E  E  E  E      E   E  E   E    E  E   E   E   
---------------------------|---------------------------------|
---------------------------|---------------------------------|
---------------------------|---------------------------------|
--9s--7--------------------|--10s--9-----10s--12-----10s--9--|
--7s--5--------------------|---8s--7------8s--10------8s--7--|
---------0--0--0--0--0--0--|----------0-----------0----------|


         PM PM PM PM PM PM           PM         PM          
  E   E  E  E  E  E  E  E     E   E  E  E    E  E   E   E   
---------------------------|-------------------------------|
---------------------------|-------------------------------|
---------------------------|-------------------------------|
--9s--7--------------------|--9s--7-----9s--10-----10s--9--|
--7s--5--------------------|--7s--5-----7s---8------8s--7--|
---------0--0--0--0--0--0--|---------0----------0----------|


         PM PM PM PM PM PM            PM                     
  E   E  E  E  E  E  E  E      E   E  E   E  E   E   E   E   
---------------------------|--------------------------------|
---------------------------|--------------------------------|
---------------------------|--------------------------------|
--9s--7--------------------|-------------12--L--12--12--11--|
--7s--5--------------------|--10s--9-----10--L--10--10---9--|
---------0--0--0--0--0--0--|---8s--7--0---------------------|


  H.            E  E     H.            E  E     W                  
----------------------|----------------------|--------------------|
----------------------|----------------------|--------------------|
----------------------|----------------------|--------------------|
----------------------|--7~------------8--7--|--5~----------------|
--5~------------5--8--|----------------------|--------------------|
----------------------|----------------------|--------------------|


              |--3--|                                                          
  E  E  E  E  S  S  S  E  E  E     H.            E  E     H.            E  E   
--------------------------------|----------------------|----------------------|
--------------------------------|----------------------|----------------------|
--5-----------------------------|----------------------|----------------------|
-----8--7--8--7h-8p-7s-5--7--5--|----------------------|--7~------------8--7--|
--------------------------------|--5~------------5--8--|----------------------|
--------------------------------|----------------------|----------------------|


                                   |--3--|                                   
  W                    E  E  E  E  S  S  S  E  E  E     H.            E  E   
--------------------|--------------------------------|----------------------|
--------------------|--------------------------------|----------------------|
--------------------|--5-----------------------------|----------------------|
--5~----------------|-----8--7--8--7h-8p-7s-5--7--5--|----------------------|
--------------------|--------------------------------|--5~------------5--8--|
--------------------|--------------------------------|----------------------|


                                                          |--3--|            
  H.            E  E     W                    E  E  E  E  S  S  S  E  E  E   
----------------------|--------------------|--------------------------------|
----------------------|--------------------|--------------------------------|
----------------------|--------------------|--5-----------------------------|
--7~------------8--7--|--5~----------------|-----8--7--8--7h-8p-7s-5--7--5--|
----------------------|--------------------|--------------------------------|
----------------------|--------------------|--------------------------------|


  H.            E  E     H.            E  E     H         H          
----------------------|----------------------|----------------------|
----------------------|----------------------|----------------------|
----------------------|----------------------|----------------------|
----------------------|--7~------------8--7--|--5~------------------|
--5~------------5--8--|----------------------|------------8\--------|
----------------------|----------------------|----------------------|


  PM PM PM PM PM PM PM PM PM PM                         
  E  E  S  S  E  E  E  S  S  E     Q    Q    Q    Q     
--------------------------------|----------------------|
--------------------------------|----------------------|
--------------------------------|----------------------|
--------------------------------|-------5----4----5----|
--2--2--2--2--2--2--2--2--2--2--|--7-------------------|
--0--0--0--0--0--0--0--0--0--0--|----------------------|


    Q    Q    E   E  Q       Q    Q    Q    Q       Q     Q    E   E  Q     
--------------------------|----------------------|-------------------------|
--------------------------|----------------------|-------------------------|
--------------------------|----------------------|--4~---------------------|
--5g7----5----4h--5--5----|-------5----4----5----|--------5----4h--5--5----|
--------------------------|--7-------------------|-------------------------|
--------------------------|----------------------|-------------------------|


  Q    Q    Q    Q         Q    Q    E   E  Q       Q    Q    Q    Q     
----------------------|--------------------------|----------------------|
----------------------|--------------------------|----------------------|
----------------------|--------------------------|--7----5----4---------|
-------5----4----5----|--5g7----5----4h--5--5----|-----------------7----|
--7-------------------|--------------------------|----------------------|
----------------------|--------------------------|----------------------|


  Q    Q    S  S  E   Q       Q    Q    Q    Q         Q    Q    E   E  Q     
---------------------------|----------------------|--------------------------|
--5------------------------|----------------------|--------------------------|
-------7-------------------|----------------------|--------------------------|
------------5p-4h-5p--4----|-------5----4----5----|--5g7----5----4h--5--5----|
---------------------------|--7-------------------|--------------------------|
---------------------------|----------------------|--------------------------|


  Q    Q    Q    Q       Q     Q    E   E  Q       Q    Q    Q    Q     
----------------------|-------------------------|----------------------|
----------------------|-------------------------|----------------------|
----------------------|--4~---------------------|----------------------|
-------5----4----5----|--------5----4h--5--5----|-------5----4----5----|
--7-------------------|-------------------------|--7-------------------|
----------------------|-------------------------|----------------------|


    Q    Q    E   E  Q       Q    Q    Q    Q       Q    Q    E  E    Q      
--------------------------|----------------------|--------------------------|
--------------------------|----------------------|--5---------------<>5~----|
--------------------------|--7----5----4---------|-------7----5--4----------|
--5g7----5----4h--5--5----|-----------------7----|--------------------------|
--------------------------|----------------------|--------------------------|
--------------------------|----------------------|--------------------------|


         PM PM PM PM PM PM           PM         PM          
  E   E  E  E  E  E  E  E     E   E  E  E    E  E   E   E   
---------------------------|-------------------------------|
---------------------------|-------------------------------|
---------------------------|-------------------------------|
--9s--7--------------------|--9s--7-----9s--10-----10s--9--|
--7s--5--------------------|--7s--5-----7s---8------8s--7--|
---------0--0--0--0--0--0--|---------0----------0----------|


         PM PM PM PM PM PM            PM          PM          
  E   E  E  E  E  E  E  E      E   E  E   E    E  E   E   E   
---------------------------|---------------------------------|
---------------------------|---------------------------------|
---------------------------|---------------------------------|
--9s--7--------------------|--10s--9-----10s--12-----10s--9--|
--7s--5--------------------|---8s--7------8s--10------8s--7--|
---------0--0--0--0--0--0--|----------0-----------0----------|


         PM PM PM PM PM PM           PM         PM          
  E   E  E  E  E  E  E  E     E   E  E  E    E  E   E   E   
---------------------------|-------------------------------|
---------------------------|-------------------------------|
---------------------------|-------------------------------|
--9s--7--------------------|--9s--7-----9s--10-----10s--9--|
--7s--5--------------------|--7s--5-----7s---8------8s--7--|
---------0--0--0--0--0--0--|---------0----------0----------|


         PM PM PM PM PM PM            PM                     
  E   E  E  E  E  E  E  E      E   E  E   E  E   E   E   E   
---------------------------|--------------------------------|
---------------------------|--------------------------------|
---------------------------|--------------------------------|
--9s--7--------------------|-------------12--L--12--12--11--|
--7s--5--------------------|--10s--9-----10--L--10--10---9--|
---------0--0--0--0--0--0--|---8s--7--0---------------------|


         PM PM PM PM PM PM           PM         PM          
  E   E  E  E  E  E  E  E     E   E  E  E    E  E   E   E   
---------------------------|-------------------------------|
---------------------------|-------------------------------|
---------------------------|-------------------------------|
--9s--7--------------------|--9s--7-----9s--10-----10s--9--|
--7s--5--------------------|--7s--5-----7s---8------8s--7--|
---------0--0--0--0--0--0--|---------0----------0----------|


         PM PM PM PM PM PM            PM          PM          
  E   E  E  E  E  E  E  E      E   E  E   E    E  E   E   E   
---------------------------|---------------------------------|
---------------------------|---------------------------------|
---------------------------|---------------------------------|
--9s--7--------------------|--10s--9-----10s--12-----10s--9--|
--7s--5--------------------|---8s--7------8s--10------8s--7--|
---------0--0--0--0--0--0--|----------0-----------0----------|


         PM PM PM PM PM PM           PM         PM          
  E   E  E  E  E  E  E  E     E   E  E  E    E  E   E   E   
---------------------------|-------------------------------|
---------------------------|-------------------------------|
---------------------------|-------------------------------|
--9s--7--------------------|--9s--7-----9s--10-----10s--9--|
--7s--5--------------------|--7s--5-----7s---8------8s--7--|
---------0--0--0--0--0--0--|---------0----------0----------|


         PM PM PM PM PM PM            PM                     
  E   E  E  E  E  E  E  E      E   E  E   E  E   E   E   E   
---------------------------|--------------------------------|
---------------------------|--------------------------------|
---------------------------|--------------------------------|
--9s--7--------------------|-------------12--L--12--12--11--|
--7s--5--------------------|--10s--9-----10--L--10--10---9--|
---------0--0--0--0--0--0--|---8s--7--0---------------------|


  H.            E  E     H.            E  E     W                  
----------------------|----------------------|--------------------|
----------------------|----------------------|--------------------|
----------------------|----------------------|--------------------|
----------------------|--7~------------8--7--|--5~----------------|
--5~------------5--8--|----------------------|--------------------|
----------------------|----------------------|--------------------|


              |--3--|                                                          
  E  E  E  E  S  S  S  E  E  E     H.            E  E     H.            E  E   
--------------------------------|----------------------|----------------------|
--------------------------------|----------------------|----------------------|
--5-----------------------------|----------------------|----------------------|
-----8--7--8--7h-8p-7s-5--7--5--|----------------------|--7~------------8--7--|
--------------------------------|--5~------------5--8--|----------------------|
--------------------------------|----------------------|----------------------|


                                   |--3--|                                   
  W                    E  E  E  E  S  S  S  E  E  E     H.            E  E   
--------------------|--------------------------------|----------------------|
--------------------|--------------------------------|----------------------|
--------------------|--5-----------------------------|----------------------|
--5~----------------|-----8--7--8--7h-8p-7s-5--7--5--|----------------------|
--------------------|--------------------------------|--5~------------5--8--|
--------------------|--------------------------------|----------------------|


                                                          |--3--|            
  H.            E  E     W                    E  E  E  E  S  S  S  E  E  E   
----------------------|--------------------|--------------------------------|
----------------------|--------------------|--------------------------------|
----------------------|--------------------|--5-----------------------------|
--7~------------8--7--|--5~----------------|-----8--7--8--7h-8p-7s-5--7--5--|
----------------------|--------------------|--------------------------------|
----------------------|--------------------|--------------------------------|


  H.            E  E     H.            E  E     H         H          
----------------------|----------------------|----------------------|
----------------------|----------------------|----------------------|
----------------------|----------------------|----------------------|
----------------------|--7~------------8--7--|--5~------------------|
--5~------------5--8--|----------------------|------------8\--------|
----------------------|----------------------|----------------------|


  PM PM PM PM PM PM PM PM PM PM                         
  E  E  S  S  E  E  E  S  S  E     Q    Q    Q    Q     
--------------------------------|----------------------|
--------------------------------|----------------------|
--------------------------------|----------------------|
--------------------------------|-------5----4----5----|
--2--2--2--2--2--2--2--2--2--2--|--7-------------------|
--0--0--0--0--0--0--0--0--0--0--|----------------------|


    Q    Q    E   E  Q       Q    Q    Q    Q       Q     Q    E   E  Q     
--------------------------|----------------------|-------------------------|
--------------------------|----------------------|-------------------------|
--------------------------|----------------------|--4~---------------------|
--5g7----5----4h--5--5----|-------5----4----5----|--------5----4h--5--5----|
--------------------------|--7-------------------|-------------------------|
--------------------------|----------------------|-------------------------|


  Q    Q    Q    Q         Q    Q    E   E  Q       Q    Q    Q    Q     
----------------------|--------------------------|----------------------|
----------------------|--------------------------|----------------------|
----------------------|--------------------------|--7----5----4---------|
-------5----4----5----|--5g7----5----4h--5--5----|-----------------7----|
--7-------------------|--------------------------|----------------------|
----------------------|--------------------------|----------------------|


  Q    Q    S  S  E   Q       Q    Q    Q    Q         Q    Q    E   E  Q     
---------------------------|----------------------|--------------------------|
--5------------------------|----------------------|--------------------------|
-------7-------------------|----------------------|--------------------------|
------------5p-4h-5p--4----|-------5----4----5----|--5g7----5----4h--5--5----|
---------------------------|--7-------------------|--------------------------|
---------------------------|----------------------|--------------------------|


  Q    Q    Q    Q       Q     Q    E   E  Q       Q    Q    Q    Q     
----------------------|-------------------------|----------------------|
----------------------|-------------------------|----------------------|
----------------------|--4~---------------------|----------------------|
-------5----4----5----|--------5----4h--5--5----|-------5----4----5----|
--7-------------------|-------------------------|--7-------------------|
----------------------|-------------------------|----------------------|


    Q    Q    E   E  Q       Q    Q    Q    Q       Q    Q    E  E  Q      
--------------------------|----------------------|------------------------|
--------------------------|----------------------|--5---------7--5--7~----|
--------------------------|--7----5----4---------|-------7----------------|
--5g7----5----4h--5--5----|-----------------7----|------------------------|
--------------------------|----------------------|------------------------|
--------------------------|----------------------|------------------------|


                   
  Q                                         E  E  H          
------------------------------------------------------------|
------------------------------------------------------------|
--------------------------------------------6--4--6~--------|
--4---------------------------------------------------------|
------------------------------------------------------------|
------------------------------------------------------------|


  E  E  E  E  E  E  E  E     Q    E  E  H            E  E  E  Q     E  Q      
--------------------------|-----------------------|--------------------------|
--------------------------|-----------------------|--------------------------|
-----7--6--7-----7--6--7--|-------6--4--6~--------|-----7--6--7~----6--4~----|
--------------------------|--4--------------------|--------------------------|
--8-----------8-----------|-----------------------|--8-----------------------|
--------------------------|-----------------------|--------------------------|


  Q    E  E  H            E  E  E  E  E  E  E  E     Q    E  E  H          
-----------------------|--------------------------|-----------------------|
-----------------------|--------------------------|-----------------------|
-------6--4--6~--------|-----7--6--7-----7--6--7--|-------6--4--6~--------|
--4--------------------|--------------------------|--4--------------------|
-----------------------|--8-----------8-----------|-----------------------|
-----------------------|--------------------------|-----------------------|


  E  E  E  E  E  E  E  E     Q    H         Q                             
--------------------------|----------------------|-------|-------|-------|
-----------------6--5--6--|----------------------|-------|-------|-------|
-----7--6--7--6-----------|--7----L\-------------|-------|-------|-------|
--------------------------|----------------------|-------|-------|-------|
--8-----------------------|----------------------|-------|-------|-------|
--------------------------|----------------------|-------|-------|-------|


-------|-------|-------|-------|-------|-------|-------|-------|-------|-------|
-------|-------|-------|-------|-------|-------|-------|-------|-------|-------|
-------|-------|-------|-------|-------|-------|-------|-------|-------|-------|
-------|-------|-------|-------|-------|-------|-------|-------|-------|-------|
-------|-------|-------|-------|-------|-------|-------|-------|-------|-------|
-------|-------|-------|-------|-------|-------|-------|-------|-------|-------|


-------|-------|-------|-------|-------|-------|-------|-------|-------|-------|
-------|-------|-------|-------|-------|-------|-------|-------|-------|-------|
-------|-------|-------|-------|-------|-------|-------|-------|-------|-------|
-------|-------|-------|-------|-------|-------|-------|-------|-------|-------|
-------|-------|-------|-------|-------|-------|-------|-------|-------|-------|
-------|-------|-------|-------|-------|-------|-------|-------|-------|-------|


-------|-------|-------|-------|-------|-------|-------|-------|-------|-------|
-------|-------|-------|-------|-------|-------|-------|-------|-------|-------|
-------|-------|-------|-------|-------|-------|-------|-------|-------|-------|
-------|-------|-------|-------|-------|-------|-------|-------|-------|-------|
-------|-------|-------|-------|-------|-------|-------|-------|-------|-------|
-------|-------|-------|-------|-------|-------|-------|-------|-------|-------|


       PM PM                                            PM PM           
  Q    E  E  H           Q    Q    E  Q      E     Q    E  E  H         
----------------------|-------------------------|----------------------|
----------------------|-------------------------|----------------------|
----------------------|-------------------------|----------------------|
--2-------------------|--3----3-----------------|--2-------------------|
--2-------------------|--3----3-----------------|--2-------------------|
--0----0--0-----------|--1----1----1--3br----1--|--0----0--0-----------|


                                PM PM                                     
  Q    Q    E  E  E  E     Q    E  E  H           Q    Q    E  Q      E   
------------------------|----------------------|-------------------------|
------------------------|----------------------|-------------------------|
------------------------|----------------------|-------------------------|
--3----3----------------|--2-------------------|--3----3-----------------|
--3----3----3-----------|--2-------------------|--3----3-----------------|
--1----1-------4--1--3--|--0----0--0-----------|--1----1----1--3br----1--|


       PM PM                                           PM PM           
  Q    E  E  H           Q    Q    E  E  E  E     Q    E  E  H         
----------------------|------------------------|----------------------|
----------------------|------------------------|----------------------|
----------------------|------------------------|----------------------|
--2-------------------|--3----3----------------|--2-------------------|
--2-------------------|--3----3----3-----------|--2-------------------|
--0----0--0-----------|--1----1-------4--1--3--|--0----0--0-----------|


                                 PM PM                                    
  Q    Q    E  Q      E     Q    E  E  H           Q    Q    E  E  E  E   
-------------------------|----------------------|------------------------|
-------------------------|----------------------|------------------------|
-------------------------|----------------------|------------------------|
--3----3-----------------|--2-------------------|--3----3----------------|
--3----3-----------------|--2-------------------|--3----3----3-----------|
--1----1----1--3br----1--|--0----0--0-----------|--1----1-------4--1--3--|


       PM PM                                            PM PM           
  Q    E  E  H           Q    Q    E  Q      E     Q    E  E  H         
----------------------|-------------------------|----------------------|
----------------------|-------------------------|----------------------|
----------------------|-------------------------|----------------------|
--2-------------------|--3----3-----------------|--2-------------------|
--2-------------------|--3----3-----------------|--2-------------------|
--0----0--0-----------|--1----1----1--3br----1--|--0----0--0-----------|


  Q    Q    E  E  E  E     Q    E  E  H            E  E  E  E  E  E  E  E   
------------------------|-----------------------|--------------------------|
------------------------|-----------------------|--------------------------|
------------------------|-------6--4--6~--------|-----7--6--7-----7--6--7--|
--3----3----------------|--4--------------------|--------------------------|
--3----3----3-----------|-----------------------|--8-----------8-----------|
--1----1-------4--1--3--|-----------------------|--------------------------|


  Q    E  E  H            E  E  E  Q     E  Q        Q    E  E  H          
-----------------------|--------------------------|-----------------------|
-----------------------|--------------------------|-----------------------|
-------6--4--6~--------|-----7--6--7~----6--4~----|-------6--4--6~--------|
--4--------------------|--------------------------|--4--------------------|
-----------------------|--8-----------------------|-----------------------|
-----------------------|--------------------------|-----------------------|


  E  E  E  E  E  E  E  E     Q    E  E  H            E  E  E  E  E  E  E  E   
--------------------------|-----------------------|--------------------------|
--------------------------|-----------------------|-----------------6--5--6--|
-----7--6--7-----7--6--7--|-------6--4--6~--------|-----7--6--7--6-----------|
--------------------------|--4--------------------|--------------------------|
--8-----------8-----------|-----------------------|--8-----------------------|
--------------------------|-----------------------|--------------------------|


                                 PM  PM PM PM              
   Q      Q      Q      Q        E   E  E  E  E  E  E  E   
--14b----14b----14b----14\----|------------------7--------|
--17b----17b----17b----17\----|---------------8-----8-----|
------------------------------|------------------------9--|
------------------------------|---------------------------|
------------------------------|--7--10-----7--------------|
------------------------------|---------7-----------------|


  E  E  E  E  E  E  E  E      E    E   E   E   H         
--------------------------|--14b--14--------------------|
--8--7-----8--7-----7-----|-----------13--12~--L--------|
--------------------------|-----------------------------|
--------9--------9-----9--|-----------------------------|
--------------------------|-----------------------------|
--------------------------|-----------------------------|


  S S S S S S S S  S  S  S  S S S S S  
--------------------------------------|
--------------------------------------|
--9-9-9-9-7-7-7-7-10-10-10-10-9-9-9-9-|
--------------------------------------|
--------------------------------------|
--------------------------------------|


                                             \3                
  S S S S  S  S  S  S  S  S  S  S S S S S    W                 
------------------------------------------|-------------------|
--8-8-8-8-------------10-10-10-10-8-8-8-8-|-------------------|
----------10-10-10-10---------------------|-------------------|
------------------------------------------|-------------------|
------------------------------------------|-------------------|
------------------------------------------|--0----------------|


                                    SH             PM  PM  
   S S S  S S S E  Q     Q          H.             E   E   
-------------------7----------|---------------------------|
----------------8-------10----|---------------------------|
------------7-9---------------|--<>10~--------------------|
-----7-9-10-------------------|-------------------14--14--|
--10--------------------------|---------------------------|
------------------------------|---------------------------|


   S   S  E.   E.    E.   E.   E      E  E   Q    S   S  E   E   E   
-----------------------------------|--------------------------------|
--12h-13-12------------------------|--------------------------------|
--------------14~---13---14---10s--|--9--9~--L----9h-10p-9----------|
-----------------------------------|------------------------10--12--|
-----------------------------------|--------------------------------|
-----------------------------------|--------------------------------|


   S  S E   S   S  S  S S   S  S  S  S  S  S  S     E   E   E  H        E   
------------------------------------------------|--------------------------|
------------------------------------------------|--------------------------|
--10-12-9---------------------------------------|--------------------------|
-----------12p-10p-9----9h-10p-9----------------|--------------------------|
---------------------12----------12-10----------|-----------------------8--|
---------------------------------------13-12-10-|--12s--7h--8--7-----------|


  Q    E   H          E   
-------------------------|
-------------------------|
-------7-----------------|
--7-------10~------------|
---------------------19--|
-------------------------|


                                            |--3--|      
   S  S  S  S  S   S   S   S   S   S  S  S  S  S  S  E   
--------------15h-19p-15h-19s-20p-17--------------------|
-----------17------------------------18-----------------|
--------16------------------------------17--------------|
-----17------------------------------------19-----------|
--19------------------------------------------20-19-20--|
--------------------------------------------------------|


   E   E   E    E   E   E   E   E      W                  
-----------------------------------|---------------------|
-----------------------------------|---------------------|
-----------------------------------|---------------------|
--------------/17---L--17--16------|---------------------|
--19------19-------------------17--|--17~----------------|
------19---------------------------|---------------------|


                                                          |--3--|            
  H.            E  E     W                    E  E  E  E  S  S  S  E  E  E   
----------------------|--------------------|--------------------------------|
----------------------|--------------------|--------------------------------|
----------------------|--------------------|--5-----------------------------|
--7~------------8--7--|--5~----------------|-----8--7--8--7h-8p-7s-5--7--5--|
----------------------|--------------------|--------------------------------|
----------------------|--------------------|--------------------------------|


  H.            E  E     H.            E  E     W                  
----------------------|----------------------|--------------------|
----------------------|----------------------|--------------------|
----------------------|----------------------|--------------------|
----------------------|--7~------------8--7--|--5~----------------|
--5~------------5--8--|----------------------|--------------------|
----------------------|----------------------|--------------------|


              |--3--|                                                          
  E  E  E  E  S  S  S  E  E  E     H.            E  E     H.            E  E   
--------------------------------|----------------------|----------------------|
--------------------------------|----------------------|----------------------|
--5-----------------------------|----------------------|----------------------|
-----8--7--8--7h-8p-7s-5--7--5--|----------------------|--7~------------8--7--|
--------------------------------|--5~------------5--8--|----------------------|
--------------------------------|----------------------|----------------------|


                                   |--3--|                                   
  W                    E  E  E  E  S  S  S  E  E  E     H.            E  E   
--------------------|--------------------------------|----------------------|
--------------------|--------------------------------|----------------------|
--------------------|--5-----------------------------|----------------------|
--5~----------------|-----8--7--8--7h-8p-7s-5--7--5--|----------------------|
--------------------|--------------------------------|--5~------------5--8--|
--------------------|--------------------------------|----------------------|


                                                PM PM PM PM PM PM PM PM PM PM  
  H.            E  E     H         H            E  E  S  S  E  E  E  S  S  E   
----------------------|----------------------|--------------------------------|
----------------------|----------------------|--------------------------------|
----------------------|----------------------|--------------------------------|
--7~------------8--7--|--5~------------------|--------------------------------|
----------------------|------------8\--------|--2--2--2--2--2--2--2--2--2--2--|
----------------------|----------------------|--0--0--0--0--0--0--0--0--0--0--|


  Q    Q    Q    Q         Q    Q    E   E  Q       Q    Q    Q    Q     
----------------------|--------------------------|----------------------|
----------------------|--------------------------|----------------------|
----------------------|--------------------------|----------------------|
-------5----4----5----|--5g7----5----4h--5--5----|-------5----4----5----|
--7-------------------|--------------------------|--7-------------------|
----------------------|--------------------------|----------------------|


    Q     Q    E   E  Q       Q    Q    Q    Q         Q    Q    E   E  Q     
---------------------------|----------------------|--------------------------|
---------------------------|----------------------|--------------------------|
--<>4~---------------------|----------------------|--------------------------|
----------5----4h--5--5----|-------5----4----5----|--5g7----5----4h--5--5----|
---------------------------|--7-------------------|--------------------------|
---------------------------|----------------------|--------------------------|


  Q    Q    Q    Q       Q    Q    S  S  E   Q       Q    Q    Q    Q     
----------------------|---------------------------|----------------------|
----------------------|--5------------------------|----------------------|
--7----5----4---------|-------7-------------------|----------------------|
-----------------7----|------------5p-4h-5p--4----|-------5----4----5----|
----------------------|---------------------------|--7-------------------|
----------------------|---------------------------|----------------------|


    Q    Q    E   E  Q       Q    Q    Q    Q       Q     Q    E   E  Q     
--------------------------|----------------------|-------------------------|
--------------------------|----------------------|-------------------------|
--------------------------|----------------------|--4~---------------------|
--5g7----5----4h--5--5----|-------5----4----5----|--------5----4h--5--5----|
--------------------------|--7-------------------|-------------------------|
--------------------------|----------------------|-------------------------|


  Q    Q    Q    Q         Q    Q    E   E  Q       Q    Q    Q    Q     
----------------------|--------------------------|----------------------|
----------------------|--------------------------|----------------------|
----------------------|--------------------------|--7----5----4---------|
-------5----4----5----|--5g7----5----4h--5--5----|-----------------7----|
--7-------------------|--------------------------|----------------------|
----------------------|--------------------------|----------------------|


  Q    Q    S  S  S  S E  E     E  E  E  E  E  E  E  E   
-----------------------------|--------------------------|
--5--------------------------|--------------------------|
-------7----5p-4h-5p-4-------|--------------------------|
-----------------------7--5--|--------5--5--4--4--5--5--|
-----------------------------|--7--7--------------------|
-----------------------------|--------------------------|


  E  E  E  E  E  E  E  E     E  E  E  E  E  E  E  E   
--------------------------|--------------------------|
--------------------------|--------------------------|
--------------------------|--------------------------|
--7--7--5--5--4--4--5--5--|--------5--5--4--4--5--5--|
--------------------------|--7--7--------------------|
--------------------------|--------------------------|


  E  E  E  E  E  E  E  E     E  E  E  E  E  E  E  E   
--------------------------|--------------------------|
--------------------------|--------------------------|
--4--4--------------------|--------------------------|
--------5--5--4--4--5--5--|--------5--5--4--4--5--5--|
--------------------------|--7--7--------------------|
--------------------------|--------------------------|


  E  E  E  E  E  E  E  E     E  E  E  E  E  E  E  E   
--------------------------|--------------------------|
--------------------------|--------------------------|
--------------------------|--7--7--5--5--4--4--------|
--7--7--5--5--4--4--5--5--|--------------------7--7--|
--------------------------|--------------------------|
--------------------------|--------------------------|


  E  E  E  E  S  S  S  S E  E     S S S S S S S S S S S S S S S S  
-------------------------------|----------------------------------|
--5--5-------------------------|----------------------------------|
--------7--7--5p-4h-5p-4-------|----------------------------------|
-------------------------7--5--|----------5-5-5-5-4-4-4-4-5-5-5-5-|
-------------------------------|--7-7-7-7-------------------------|
-------------------------------|----------------------------------|


  S S S S S S S S S S S S S S S S    S S S S S S S S S S S S S S S S  
----------------------------------|----------------------------------|
----------------------------------|----------------------------------|
----------------------------------|----------------------------------|
--7-7-7-7-5-5-5-5-4-4-4-4-5-5-5-5-|----------5-5-5-5-4-4-4-4-5-5-5-5-|
----------------------------------|--7-7-7-7-------------------------|
----------------------------------|----------------------------------|


  S S S S S S S S S S S S S S S S    S S S S S S S S S S S S S S S S  
----------------------------------|----------------------------------|
----------------------------------|----------------------------------|
--4-4-4-4-------------------------|----------------------------------|
----------5-5-5-5-4-4-4-4-5-5-5-5-|----------5-5-5-5-4-4-4-4-5-5-5-5-|
----------------------------------|--7-7-7-7-------------------------|
----------------------------------|----------------------------------|


  S S S S S S S S S S S S S S S S    Q    Q    Q    Q     
----------------------------------|----------------------|
----------------------------------|----------------------|
----------------------------------|--7----5----4---------|
--7-7-7-7-5-5-5-5-4-4-4-4-5-5-5-5-|-----------------7----|
----------------------------------|----------------------|
----------------------------------|----------------------|


  Q    Q    E  E  Q        Q    H         Q      
------------------------|----------------------||
--5---------------------|----------------------||
-------7----5--4--5~----|--9----L\-------------||
------------------------|--9----L\-------------||
------------------------|--7----L\-------------||
------------------------|----------------------||  DGCFAD





                           




     
comments
print report bad tab
6 comments total. Showing first comments.
0 reply
paddyirishman wrote on August 15 2008, 02:09 pm

It appears that you've just exported this guy's Guitar Pro tab to ASCII format and claimed it as your own (presumably without the original tabber's involvement/approval):

http://www.ultimate-guitar.com/tabs/c/cradle_of_filth/tonight_in_flames_guitar_pro.htm

Either that, or it's an amazing coincidence :P

0 reply
Chaz-6(sic)6 wrote on September 18 2008, 04:27 pm

Who Cares if he copied it or not, this tab kicks major A**.

0 reply
chasef wrote on October 14 2008, 12:08 pm

yes i did copy im just putting it in text format

I want to post or [tab]
guest
You may want to rate the tab now too:
select rating
Please do not post tabs as comments. Select "correction" instead!