Oops, an error
Loading. Please wait.

Going Blind Tab

159 views 1 this week
no commentswrite comment
1 2 3 4 5
please rate
Autoscroll
+/-
esc
set tempo
stop
Contributor
Difficulty
Tuning
intermediate
D# G# C# F# A# D#
Hey! There's an official Ultimate Guitar app which is ideal
for learning songs when you're away from computer. Get the app
WARNING: You are trying to view
                                    content from Ultimate-Guitar.com
                                    in an unauthorized application,
                                    which is prohibited.

                                    Please use an official Ultimate
                                    Guitar Tabs application for iPhone,
                                    iPad or Android to access legitimate
                                    chords, guitar, bass, and drum tabs
                                    from Ultimate-Guitar.com database.

                                    Type "ultimate guitar tabs" in Apple
                                    App Store's or Android Market's
                                    search to find the application.
Going Blind - Craigs Brother


Tuning: D#

Intro 1
 Gtr 1 - x2
-|--------------------------------------------------------------------|
-|-----1-----------1--------------1------------3--------------1-------|
-|-------0---0-------0---0------2---2---2--------0-----0--------2---0-|
-|---2-----2-----0----------2--2------2------0-----0--------3---------|
-|-3-------3---2-------2----0-0-------0----2---------2----3-------3---|
-|-------------3-------3-------------------3---------3----1-------1---|

-|-------------------------------------|-3---|
-|-----1-------------3-----3-------3---|-3---|
-|-------0---0---------0---------0---0-|-0---|
-|---2------------0------------0-------|-0---|
-|-3-------3-----2-------2---2---------|-2-r-|
-|---------------3-------3---3---------|-3---|

 Gtr 2
-|----------------------------------------------------------3---|
-|---------3--------------3------------------3--------3-5-6---5-|
-|-5-2-4-5---5-4-5--2-4-5---5-4-2----0-2-4-5---4--4-5-----------|
-|---------------------------------3----------------------------|
-|--------------------------------------------------------------|
-|--------------------------------------------------------------|

-|--------------------------------------------7---8--10-r-|
-|---3-5-6-5-3-5----3-5-6-5-3----------3-5-6--8--10--12---|
-|-5--------------5-----------5--2-4-5--------------------|
-|--------------------------------------------------------|
-|--------------------------------------------------------|
-|--------------------------------------------------------|

Intro 2
 Gtr 1
-|--------------------------------------------|
-|--------------------------------------------|
-|-10101010-999-9-12-10-9-10p9-7-7--1010-9-12-|
-|--------------------------------------------|
-|--------------------------------------------|
-|--------------------------------------------|

 Gtr 2
-|--------------------------------------------|
-|--------------------------------------------|
-|-10---------------------7-----------999-7-9-|
-|-10-6-----10-6----------7-6---------999-7-9-|
-|--8--------7------------5-----------777-5-7-|
-|--------------------------------------------|

 Gtr 1
-|------------------------------------------------|
-|------------------------------------------------|
-|-1414-121212-101010-999--------xx-12-xx-10-xx-9-|
-|--------------------------xx-7-xx-12-xx-10-xx-9-|
-|-1212-101010--8-8-8-777\--xx-7-xx-10-xx--8-xx-7-|
-|--------------------------xx-5------------------|






 Gtr 2
-|------------------------------------------------|
-|------------------------------------------------|
-|-10-----------------777--------xx-12-xx-10-xx-9-|
-|-10-6-------101010--777---xx-7-xx-12-xx-10-xx-9-|
-|--8----------7-7-7--555---xx-7-xx-10-xx--8-xx-7-|
-|--------------------------xx-5------------------|

Gtr 1
-|--------------------------------|
-|------------------13------------|
-|-10101010-10-9h10----9-9h10p9-7-|
-|--------------------------------|
-|--------------------------------|
-|--------------------------------|

 Gtr 2
-|--------------------------------|
-|--------------------------------|
-|-10--------------------7--------|
-|-10-6--------10-6------7-6------|
-|--8-----------7--------5--------|
-|--------------------------------|

 Gtr 1
-|------------------------------------------------|
-|------------------------------------------------|
-|---------------------7h9h10-10101010-99-9b10r-9-|
-|-------7h9h10-7h9h10----------------------------|
-|-5h7h8------------------------------------------|
-|------------------------------------------------|

 Gtr 2
-|------------------------------------------------|
-|------------------------------------------------|
-|-7------------9--------------10-------------777-|
-|-7------------9--------------10-6---101010--777-|
-|-5------------7---------------8------7-7-7--555-|
-|------------------------------------------------|

 Both Gtrís
-|---------------------|
-|---------------------|
-|---------------------|
-|-xx-7-xx-7-xx-7-xx-7-|
-|-xx-7-xx-7-xx-7-xx-7-|
-|-xx-5-xx-5-xx-5-xx-5-|

Verse
 Gtr 1
-|-------------------------------------------------x2-|
-|----------------------------------------------------|
-|-5----7----9--xx-9-xx-9-xx-9--10--xx-10-xx-10-xx-10-|
-|---r----r-----xx---xx---xx--------xx----xx----xx----|
-|-3----5----7--xx-7-xx-7-xx-7---8--xx--8-xx--8-xx--8-|
-|----------------------------------------------------|

 Gtr 2
-|---------------------------------------------x2-|
-|------------------------------------------------|
-|------------------------------------------------|
-|-7----5----2--xx-2-xx-2-xx-2--3--xx-3-xx-3-xx-3-|
-|-7-r--5-r--2--xx-2-xx-2-xx-2--3--xx-3-xx-3-xx-3-|
-|-5----3----0--xx-0-xx-0-xx-0--1--xx-1-xx-1-xx-1-|


Riff
 Gtr 1
-|------------------------------------------------------|
-|------------------------------------------------------|
-|------------------------------------------------------|
-|--------------------------------------------xx-3-xx-3-|
-|-101010---10---101010---10---888---8---888--xx-3-xx-3-|
-|--------8----8--------7----7-----6---6------xx-1-xx-1-|

 Gtr 2
-|----------------------------------------------------|
-|----------------------------------------------------|
-|----------------------------------------------------|
-|------------------------------------------xx-3-xx-3-|
-|-----10---10-----10---10-----8---8---8----xx-3-xx-3-|
-|-888----8----777----7----666---6---5---5--xx-1-xx-1-|

Chorus 1
 Gtr 1
-|-----------------------------------------------------------------------|
-|-----------------------------------------------------------------------|
-|-10----------10------------------------10---------77-------------5-7-9-|
-|-10-6--10-6--10-6---7/99-9/1010-10/12--10-6--1010-77--xx-7-xx-7--5-7-9-|
-|--8-----7-----8-------------------------8-----7-7-55--xx-7-xx-7--3-5-7-|
-|------------------------------------------------------xx-5-xx-5--------|

 Gtr 2
-|-----------------------------------------------------------------------|
-|-----------------------------------------------------------------------|
-|-10----------10------------------------10---------77-------------5-7-9-|
-|-10-6--10-6--10-6----------------------10-6--1010-77--xx-7-xx-5--5-7-9-|
-|--8-----7-----8-----3/55--5/77--7/8-----8-----7-7-55--xx-7-xx-5--3-5-7-|
-|------------------------------------------------------xx-5-xx-3--------|

 Gtr 1
-|--------------------------------------------------------------------------|
-|--------------------------------------------------------------------------|
-|-10----------10------------------------10---------77----------------------|
-|-10-6--10-6--10-6---7/99-9/1010-10/12--10-6--1010-77--xx-7-xx-7-xx-7-xx-7-|
-|--8-----7-----8-------------------------8-----7-7-55--xx-7-xx-7-xx-7-xx-7-|
-|------------------------------------------------------xx-5-xx-5-xx-5-xx-5-|

 Gtr 2
-|--------------------------------------------------------------------------|
-|--------------------------------------------------------------------------|
-|-10----------10------------------------10---------77----------------------|
-|-10-6--10-6--10-6----------------------10-6--1010-77--xx-7-xx-7-xx-7-xx-7-|
-|--8-----7-----8-----3/55--5/77--7/8-----8-----7-7-55--xx-7-xx-7-xx-7-xx-7-|
-|------------------------------------------------------xx-5-xx-5-xx-5-xx-5-|

Verse x1
Riff

Verse 3
 Both Gtrís
-|-------------------------------------|
-|-------------------------------------|
-|-------------------------------------|
-|-10-------------8----------xx-3-xx-3-|
-|-10-12--10-12---8-6--8888--xx-3-xx-3-|
-|--8------7------6----5555--xx-1-xx-1-|





Chorus 2
 Both Gtrís
-|----------------------------------------------------------------------|
-|----------------------------------------------------------------------|
-|-10----------10-----7---9---10---------77-----------------------------|
-|-10-6--10-6--10-6---7---9---10-6--1010-77--xx-7-xx-5--3-2-0---0---2h3-|
-|--8-----7-----8-----5---7----8-----7-7-55--xx-7-xx-5--------3---3-----|
-|-------------------------------------------xx-5-xx-3------------------|

-|---------------------------------------------------------------|
-|---------------------------------------------------------------|
-|-10----------10----1414-99--10---------77----------------------|
-|-10-6--10-6--10-6--1414-99--10-6--1010-77--xx-7-xx-7-xx-7-xx-7-|
-|--8-----7-----8----1212-77---8-----7-7-55--xx-7-xx-7-xx-7-xx-7-|
-|-------------------------------------------xx-5-xx-5-xx-5-xx-5-|

Break
 Gtr 1
-|-----------------------------------------------------|----------------------------|
-|-----------------------------------------------------|----------------------------|
-|-1010-99-77------------------------77----------------|----------------------------|
-|------------1010--1010-99-77----------1010-99-10-9-7-|-777-9-10-9-7--777-9-10-9-7-|
-|-------------!-!-------------1010--------------------|----------------------------|
-|-----------------------------------------------------|----------------------------|

 Gtr 2
-|----------------|-------|
-|----------------|-------|
-|----------------|-------|
-|-7----3----5----|-7---7-|
-|-7-r--3-r--5-r--|-7---7-|
-|-5----1----3----|-5---5-|
                                                                                         
                                                                                        
                                                Bridge
 Gtr 1
-|-------------------------------------------------------------|
-|-------------------------------------------------------------|
-|-10---------------------------------10-------------9--7--55--|
-|-10-6--5----1010-10-99-9-77-7-55-5--10-6--5----7-------------|
-|--8----5-6---------------------------8----5-6--7---7--5--33/-|
-|-------3----------------------------------3----5-------------|

 Gtr 2
-|---------------------------------------------------------------|
-|---------------------------------------------------------------|
-|-10------------------------------999-10------------------------|
-|-10-6--5----7--------------------999-10-6--5----7---10--9--77--|
-|--8----5-6--7-8------------------777--8----5-6--7---10--9--77--|
-|-------3----5------------------------------3----5----8--7--55--|

 Gtr 1
-|----------------------------------------------------------------------|
-|-------------------------------------------------------------------8--|
-|-10---------------------------------10-----------------7b9r7-5-7-5----|
-|-10-6--5----1010-10-99-9-77-7-55-5--10-6--5---------------------------|
-|--8----5-6---------------------------8----5-6--77-777-----------------|
-|-------3----------------------------------3----55-555-----------------|
                                                 ** ***
 Gtr 2
-|----------------------------------------------------------------------|
-|----------------------------------------------------------------------|
-|-10-----------------------------99--10-------------------------999----|
-|-10-6--5----7-------------------99--10-6--5--------------------999----|
-|--8----5-6--7-8-----------------77---8----5-6--77-777--777-7---777----|
-|-------3----5-----------------------------3----55-555--555-5----------|
                                                 ** ***  *** *
Outro
 Gtr 1
-|-------------------------------------------------|
-|-------------------------------------------------|
-|-10----------9---7---5---4---------------------2-|
-|-10-6--5-------r---r---r---r--3----5-----------2-|
-|--8----5-6---7---5---3---2----3-6--5-6--3-2h3--0-|
-|-------3----------------------1----3-------------|

 Gtr 2
-|-------------------------------------------------|
-|-------------------------------------------------|
-|-10--------------------------------------------2-|
-|-10-6--5----10---9---7---5----3----5-----------2-|
-|--8----5-6--10-r-9-r-7-r-5-r--3-6--5-6--3-2h3--0-|
-|-------3-----8---7---5---3----1----3-------------|
comments
We did not receive enough feedback on this tab! Please rate:
print report bad tab
1 2 3 4 5
I want to post or [tab]
guest
You may want to rate the tab now too:
select rating
Please do not post tabs as comments. Select "correction" instead!