Oops, an error
Loading. Please wait.

Sitting On Top Of The World Tab

ver2
ver2

Whole song

More versions @911Tabs.com
17,063 views 75 this week
1 commentread comment
1 2 3 4 5
excellent!
x 3
Autoscroll
+/-
esc
set tempo
stop
Contributor
WARNING: You are trying to view
                                    content from Ultimate-Guitar.com
                                    in an unauthorized application,
                                    which is prohibited.

                                    Please use an official Ultimate
                                    Guitar Tabs application for iPhone,
                                    iPad or Android to access legitimate
                                    chords, guitar, bass, and drum tabs
                                    from Ultimate-Guitar.com database.

                                    Type "ultimate guitar tabs" in Apple
                                    App Store's or Android Market's
                                    search to find the application.
Song: SITTING ON TOP OF THE WORLD
Artist: Cream
Album: WHEELS OF FIRE


Words and Music by Chester Burnett
Arranged by Cream

Gtr I (E A D G B E) - 'Eric Clapton - Lead w/dist'
Gtr II (E A D G B E) - 'Eric Clapton - Rhythm w/dist'



Intro:

  Slow Blues Q.=46
 12/8
  


| Gtr II
| H.      Q  E  e e  e
|----------------------||
|----------------------||
|----------------------||
|----------------------||
|-----------------8-10-||
|--------------10------||

Gtr I
   H.                           Q.            S   +S  S S S   +S
|-------------------------------------------------------3---------|
|-----------------------------------------------------3-----------|
|---------------------------------------------5b7-(5)-----5b7-(5)-|
|-----------------------------------------------------------------|
|-----------------------------------------------------------------|
|-----------------------------------------------------------------|
|
|  S   S  S S  e  S  S  S S  e  S   S  S S  e Q.
|-----------------------------------------------------------------|
|-10--10-10-9-10---------------10--10-10-9-10---------------------|
|-10--10-10-9-10-10-10-10-9-10-10--10-10-9-10---------------------|
|--9---9--9-8--9--9--9--9-8--9--9---9--9-8--9---------------------|
|-10--10-10-9-10-10-10-10-9-10-10--10-10-9-10---------------------|
|-----------------------------------------------------------------|


           ~~~
   T T  S  E    e  Q.             Q          S  S  s   S     S  S  S     +S
|----------------------------------------------------------------------------|
|-----------------------------------------------------11b12-13----13b15r(13)-|
|--3h5p=3h=5p===3---------------------------------12-----------12------------|
|----------------------------------------------12----------------------------|
|----------------------------------------------------------------------------|
|----------------------------------------------------------------------------|
|
|  S    S  S S  e  S   S  S S  e  S  S  S S  e     Q.
|----------------------------------------------------------------------------|
|-10---10-10-9-10-10--10-10-9-10-10-10-10-9-10-------------------------------|
|-10---10-10-9-10-10--10-10-9-10-10-10-10-9-10-------------------------------|
|--9----9--9-8--9--9---9--9-8--9--9--9--9-8--9-------------------------------|
|-10---10-10-9-10-10--10-10-9-10-10-10-10-9-10-------------------------------|
|----------------------------------------------------------------------------|


   ~~
                                    |-3-|
   E   E   E  e   E   E Q.          S   E      +E   +S   s
|----------------------------------------------------------|
|------------11------------------------15b18==(15)r(15)-15-|
|-12-------------------------------12----------------------|
|----------------------------------------------------------|
|----------------------------------------------------------|
|----------------------------------------------------------|
|
|  S S S S e  S S S S e S  S S S e  Q.
|---------------------3-3--3-3-2-3-------------------------|
|--3-3-3-2-3--3-3-3-2-3-3--3-3-2-3-------------------------|
|--3-3-3-2-3--3-3-3-2-3-3--3-3-2-3-------------------------|
|--2-2-2-1-2--2-2-2-1-2-2--2-2-1-2-------------------------|
|--3----------3-3-3----------------------------------------|
|----------------------------------------------------------|


               ~~
      |--3--|
   s  T  T  T  Q     Q.          S  S  S S   S S   S S E   E
|-------------------------------^3---------------------------|
|-13-11h13p11h13----------------^3-(3)-6---------------------|
|----------------------------------------5b7-5-3b5-5---3b4---|
|----------------------------------------------------5-----5-|
|------------------------------------------------------------|
|------------------------------------------------------------|
|
|  S  S        S S e S  S S S e  S  S  S S   e     e   e   e
|-----------------------------3----------2---3---------------|
|--3--3--------3-2-3-3--3-3-2-3--3--3--3-2---3---------------|
|--3--3--------3-2-3-3--3-3-2-3--3--3--3-2---3---------------|
|--2--2--------2-1-2-2--2-2-1-2--2--2--2-1---2---------3---5-|
|--3--3--------3-----3-----------3--3--3-2---3-----5---------|
|------------------------------------------------------------|


  E  E E Q.    Q.   S     S    S S S S
|-----------------------------------------|
|------------------------------3-6-3------|
|-------------------5b5.5-5pb6-------5b7--|
|-----------------------------------------|
|-3--1s2----------------------------------|
|-----------------------------------------|
|
| ~~~~~~~~~~   ~~
| Q.     Q   E Q.   E          E   E
|-----------------------------------------|
|-----------------------------------------|
|-4------4---3-4--------------------------|
|-3------3---2-3--------------------------|
|-2------2---1-2----3----------4---5------|
|-3------3---2-3--------------------------|


  ~~
  Q.     S    S  S   S      S    S  S    S  S    S  S    S      S    S    S S   S S
|-------------------------------------------------------------------------------------|
|-3-----------------------------------------------------------------------------------|
|--------5b7==5r-5b7-5pb6.5-5b7==5r-5b7==5r-5b7==5r-5pb6-5pb7---5pb6-5pb7-5-3b4-5p3b4-|
|-------------------------------------------------------------------------------------|
|-------------------------------------------------------------------------------------|
|-------------------------------------------------------------------------------------|
|
| Q.   a E       E          E       Q.                        a e         e     
|-------------------------------------------------------------------------------------|
|-6---------------------------------6-------------------------------------------------|
|-5---------------------------------5-------------------------------------------------|
|-4--------------4------------------4-------------------------3s5---------3-----------|
|-5----4s5------------------5-------5-------------------------------------------5-----|
|-------------------------------------------------------------------------------------|


  ~~
  Q.        Q.   H.
|-------------------------------|
|-------------------------------|
|-------------------------------|
|-5-----------------------------|
|-------------------------------|
|-------------------------------|
|
| ~~        ~~                ~
|     |-3-|
| Q   S S S Q.   E  E a E E E E
|-------------------------------|
|-------------------------------|
|-3---------3-------------------|
|-----5s3s5------5\-------5---5-|
|---------------------3h5-------|
|-------------------------------|


          ~     ~~     ~              ~~                      ~
   Q.   a Q   E Q.   a Q       S  S   Q   +e   E   S     S e  Q  e    a e e e
|-----------------------------------|-----------------------------------------||
|-------------3----------------8-10-|-8---(8)\-------------3------------------||
|-------3h4-----5----7s9------------|--------------3b3.5-4--------------------||
|-----------------------------------|-----------------------------------------||
|-----------------------------------|-------------------------5--5\---2s3-1---||
|-----------------------------------|---------------------------------------3-||
|
|  ~~~          ~~                    ~~                      ~
| +Q.   a E E E Q.   a E E     E      Q.       S S S     S E  Q  S  S   E E e
|-----------------------------------|-----------------------------------------||
|-----------------------------------|-----------------------------------------||
|-----------------------------------|-----------------------------------------||
|-(5)---3h5-3-----------------------|-5--------------------5\-----------3-4-5-||
|-------------5S3----1h3-1b1.5------|--------------5h====7----5--5--5---------||
|------------------------------3----|----------5h7----------------------------||




1st Verse:

   ~~~
   H.                 H.
|----------------------------------------|
|----------------------------------------|
|----------------------------------------|
|--5-------------------------------------|
|----------------------------------------|
|----------------------------------------|
|
|  E   E  E  E  E  E  E   E  E  E  E E
|-----------10----10-10--10-10-----------|
|-10--10-10-10-10-10-10--10-10-10-10-9---|
|-10--10-10-10-10-10-10--10-10-10-10-9---|
|---------------------9---9--9--9--9-8---|
|-10--10-10--------------------10-10-9---|
|----------------------------------------|


                                                 ~~
   H.                 S  S  S  S     S  S  e     Q
|------------------------------------------------------|
|-----------------------------11b12-13----13b15--------|
|--------------------------12----------12-------12-----|
|-----------------------12-----------------------------|
|------------------------------------------------------|
|------------------------------------------------------|
|
|  E   E  E  E  E  E  E     E        E     E     E  E
|------------------------------------------------------|
|-10--10-10-10-10--------------------------------------|
|-10--10-10-10-10-10-10----10-------10----10----10-10\-|
|--9---9--9--9--9--9--9-----9--------9-----9-----9--9\-|
|-10--10-10----10-10-10----10-------10----10----10-10\-|
|------------------------------------------------------|


  W
|--------------------------|
|--------------------------|
|--------------------------|
|--------------------------|
|--------------------------|
|--------------------------|
|
| E E E E E E E E E E E E
|-3-3-3-3---------------4--|
|-3-3-3-3-3-2-3-3-3-4-4-4--|
|-3-3-3-3-3-2-3-3-3-4-4-4--|
|---2-2-2---1-2-2-2-3-3-3--|
|-----------2-3-3---4-4-4--|
|--------------------------|


                                 ~~
  H.           S   +S  S S   e   Q   e   W
|--------------------------------------|----------------------|
|--------------------------------------|----------------------|
|--------------3b4-(3)-5-3b4-5---5p==3-|----------------------|
|--------------------------------------|----------------------|
|--------------------------------------|----------------------|
|--------------------------------------|----------------------|
|
|                                        T         ~~
| E  E E E E E E       E     E a e e e   Q.   Q  E Q.   E E E
|-3--------------------3---------------|----------------------|
|-3--3-3-3-3-3-3-------3---------------|----------------------|
|-3--3-3-3-3-3-3-------3---------------|-4----4--5-4----------|
|-2--2-2-2-2-2-2-------2-----2-----3-5-|-3----3--4-3----------|
|-3----------3-3-------3-----3-3s5-----|-2----2--3-2----3-4-5-|
|--------------------------------------|-3--------------------|


                                                    ~~~~~~~~
  H.          a  S     +S  S  S      +S   +S     T  S.  +S.  T E
|-------------------------------------------------------------------|
|-------------------------------------------------------------------|
|------------10s12b15-(12)---12b15==(12)r(12)---10h12--(12)---------|
|-----------------------------------------------------------10-x\---|
|--------------------------------------------------------------x\---|
|-------------------------------------------------------------------|
|
|                ~~~~~
| Q.   E E E     Q.                           a  e       E     E
|-------------------------------------------------------------------|
|-6--------------6--------------------------------------------------|
|-5--------------5--------------------------------------------------|
|-4------4-------4----------------------------3h=5-------3----------|
|-5----5---5-----5---------------------------------------------5----|
|-------------------------------------------------------------------|


                                         ~      ~~
  W                               Q.   a Q   E  Q.   a S S  S S  e
|------------------------------|--------------------------------------|
|------------------------------|-------------3-----------8-10---10b12-|
|------------------------------|-------3h4------5----7h9------9-------|
|------------------------------|--------------------------------------|
|------------------------------|--------------------------------------|
|------------------------------|--------------------------------------|
|
| ~        ~~                     ~~~           ~~
|    |-3-|
| Q  S S S Q.   E  E a E E E E   +Q.   a E E E  Q.   a E    E    E
|------------------------------|--------------------------------------|
|------------------------------|--------------------------------------|
|-3--------3-------------------|--------------------------------------|
|----5s3s5------5\-------5---5-|-(5)---3h5-3--------------------------|
|--------------------3h5-------|-------------5\-3----1h3----1---------|
|------------------------------|---------------------------------3----|


    ~~                  ~          PM--|
                   |3-|    |--3--|
    Q   E E   S S  E  S Q  S S   S e e e
|------------------------------------------||
|---8---------6p3-----3-3------------------||
|-----------------(0)------5-3-------------||
|--------------------------------5---------||
|----------------------------------2-3-2---||
|------------------------------------------||
|
|   ~~                  ~
| a Q.    S S S S  E    Q  S   S   E E e
|------------------------------------------||
|------------------------------------------||
|------------------------------------------||
|---5--------------5\--------------3-4-5---||
|-x-----------5h7-------5--5---5-----------||
|---------5h7------------------------------||




2nd Verse:

   W
|-------------------------------------------------|
|-------------------------------------------------|
|-------------------------------------------------|
|-------------------------------------------------|
|-------------------------------------------------|
|-------------------------------------------------|
|
|  S  S  S S  e  S  S  S S  e   S  S  S S  e Q.
|-------------------------------------------------|
|-10-10-10-9-10-10-10-10-9-10-/10-10-10-9-10------|
|-10-10-10-9-10-10-10-10-9-10-/10-10-10-9-10------|
|--9--9--9-8--9--9--9--9-8--9--/9--9--9-8--9------|
|-10-10-10-9-10-10-10-10-9-10-/10-10-10-9-10------|
|-------------------------------------------------|


                                                                ~~~~~
   Q.             E      E       +E    E.          S  E     E   Q
|-----------------------------------------------------------------------|
|----------------------/17b18---(17)--17b18--------------------18b20----|
|----------------------/17b19---(17)--17b19-------17-15b16--------------|
|----------------------------------------------------------17-----------|
|-----------------------------------------------------------------------|
|-----------------------------------------------------------------------|
|
|  S   S  S S  e  S  S   S    S   e    S     S  S  S  e     Q.
|-----------------------------------------------------------------------|
|-10--10-10-9-10-10-10--10----9--10--/10----10-10--9-10-----------------|
|-10--10-10-9-10-10-10--10----9--10--/10----10-10--9-10-----------------|
|--9---9--9-8--9--9--9---9----8---9---/9-----9--9--8--9-----------------|
|-10--10-10-9-10-10-10--10----9--10--/10----10-10--9-10-----------------|
|-----------------------------------------------------------------------|


    ~~~~
   +E    E   E Q.         H.
|-----------------------------------------|
|-(18)------------------------------------|
|-----------------------------------------|
|-----------------------------------------|
|-----------------------------------------|
|-----------------------------------------|
|
|   S  S S S e S  S S S e S  S S S e Q.
|-----------------------------------------|
|---3--3-3-2-3-3--3-3-2-3-3--3-3-2-3------|
|---3--3-3-2-3-3--3-3-2-3-3--3-3-2-3------|
|---2--2-2-1-2-2--2-2-1-2-2--2-2-1-2------|
|---3--3-3-2-3------------3--3-3-2-3------|
|-----------------------------------------|


                                  ~~
                    |3-|
  Q.       E    e   E  S  e       Q      e e   E
|------------------------------------------x----------|
|------------------------13b15----------11-x----------|
|--------------12-----12---------12------------3b3.5--|
|-----------------------------------------------------|
|-----------------------------------------------------|
|-----------------------------------------------------|
|
| S  S e e S S  S S e     S    S  S S e  E e a e
|-----------------------------------------------------|
|-3--3-3-3-3-3--3-2-3-----3----3--3-2-3---------------|
|-3--3-3-3-3-3--3-2-3-----3----3--3-2-3---------------|
|-2--2-2-2-2-2--2-1-2-----2----2--2-1-2------3h5------|
|-3--3-3---3-3--3-2-3-----3----3--3-2-3----4----------|
|-----------------------------------------------------|


                                                    ~~~~~~~~~
  W                      Q   S S E S S   S S  S   S Q    +Q.
|----------------------|---------5-3-----------------------------|
|----------------------|-------3-----3-----3---------------------|
|----------------------|-----------------5----3b4----------------|
|----------------------|--------------------------5--------------|
|----------------------|----------------------------5----(5)-----|
|----------------------|-----------------------------------------|
|
| ~~      T ~~           ~~
| Q.   Q  E Q.   E E E   Q.      Q     a E    Q.       a  e  E E
|----------------------|-----------------------------------------|
|----------------------|-6-------------------^6------------------|
|-4-------3-4----------|-5-------5-----------^5------------------|
|-3-------2-3----------|-4-------4-----------^4--------3s=5--3---|
|----------------3-4-5-|-5-------5-----3s5---^5----------------5-|
|-3-------2-3----------|-----------------------------------------|


  W
|----------------------------------|
|----------------------------------|
|----------------------------------|
|----------------------------------|
|----------------------------------|
|----------------------------------|
|
| ~        ~~
|    |-3-|
| Q  S S S Q.   E  E a E a E E E
|----------------------------------|
|----------------------------------|
|-3--------3-----------------------|
|----5s3-5------5\-------3h5---5---|
|--------------------3h5-----------|
|----------------------------------|


          ~      ~~
                                     |3-|
   Q.   a Q   E  Q.   a S S  S     S S  e
|-----------------------------------------|
|-------------3-----------8-10-------8h10-|
|-------3h4------5----5s9----------9------|
|-----------------------------------------|
|-----------------------------------------|
|-----------------------------------------|
|
|  ~~~           ~~
| +Q.   a E E E  Q.   a E    E       E
|-----------------------------------------|
|-----------------------------------------|
|-----------------------------------------|
|-(5)---3h5-3-----------------------------|
|-------------5\-3----1h3----1b1.5--------|
|------------------------------------3----|


  ~~                   ~
  Q.   Q       S   S   Q  +E     E   S S S S
|----------------------------------------3-----||
|-8------------------------------------3---3---||
|--------------3b4---------------3b4-4---------||
|------------------5---------------------------||
|----------------------5--(5)/-----------------||
|----------------------------------------------||
|
| ~~                   ~
| Q.   S S S S E     a Q   S   S E   E   e
|----------------------------------------------||
|----------------------------------------------||
|----------------------------------------------||
|-5------------5\----------------3h==4---5-----||
|----------5h7-------4s5---5---5---------------||
|------5h7-------------------------------------||




 Guitar Solo:

~~~~~~~~~~~~~~~~~~                                                       ~~~
  a  Q.            +Q           e   Q.             s   s  s     s  T      +T   
|------------------------------^6------------------------------------------------|
|-6s=8-------------(8)---------^8------------------------11b12-13-13pb15r(13)----|
|-----------------------------------------------------12----------------------12-|
|-------------------------------------------------12-----------------------------|
|--------------------------------------------------------------------------------|
|--------------------------------------------------------------------------------|
|
|    S   S  S S  e  S   S  S S  e   S   S  S S  e  Q.
|--------------------------------------------------------------------------------|
|---10--10-10-9-10-10--10-10-9-10-/10--10-10-9-10--------------------------------|
|---10--10-10-9-10-10--10-10-9-10-/10--10-10-9-10--------------------------------|
|----9---9--9-8--9--9---9--9-8--9--/9---9--9-8--9--------------------------------|
|---10--10-10-9-10-10--10-10-9-10-/10--10-10-9-10--------------------------------|
|--------------------------------------------------------------------------------|


 ~~~~~~
                                    |-----3-----|       |-3-|
   +E      e    E  Q          S  S  S  S        s  e    E   S  s  s  S     S 
|------------------------------------------------------------------------------------------|
|---------11--------------------------11b12----13-------------------11b12-13---13pb15r(13)-|
|-(12)-----------------------------12-------------12-----------0--0------------------------|
|-------------------------------12------------------------(12)-----------------------------|
|------------------------------------------------------------------------------------------|
|------------------------------------------------------------------------------------------|
|
|   S   S  S S  e  S  S  S S  e     S        S     S S  e      Q.
|------------------------------------------------------------------------------------------|
|--10--10-10-9-10-10-10-10-9-10----10-------10----10-9-10----------------------------------|
|--10--10-10-9-10-10-10-10-9-10----10-------10----10-9-10----------------------------------|
|---9---9--9-8--9--9--9--9-8--9-----9--------9-----9-8--9----------------------------------|
|--10--10-10-9-10-10-10-10-9-10----10-------10----10-9-10----------------------------------|
|------------------------------------------------------------------------------------------|


   ~~                            ~~~~~~~~~~
             |3-|

   E    E    e  s  S     +S   T  S.    +E   E    E   E Q   a  S     +S
|--------------------------------------------------------------------------|
|------11---13-13p11b12-(11)---------------11\-------------8-15b17-(15)b18-|
|-12-------------------------12-12----(12)---------------------------------|
|--------------------------------------------------------------------------|
|--------------------------------------------------------------------------|
|--------------------------------------------------------------------------|
|
|  S S  S S  e     S      S   S     S   e   S  S S S e Q.
|--------------------------------------------------------------------------|
|--3-3--3-2--3-----3------3---3-----2---3---3--3-3-2-3---------------------|
|--3-3--3-2--3-----3------3---3-----2---3---3--3-3-2-3---------------------|
|--2-2--2-1--2-----2------2---2-----1---2---2--2-2-1-2---------------------|
|--3-3--3-2--3-----3------3---3-----2---3---3--3-3-2-3---------------------|
|--------------------------------------------------------------------------|


                                 ~~~            ~~~
    |--3--|  |---3---|  |--3--|
   +e     S  S  S    S  E     S  Q.          T  S.   E        E a S S  S S  e
|----------------------------------------------------------------------------------|
|-(15)---15-13-15p==13-11b12----------------------------------------8-10---10b12---|
|----------------------------12-12----------10h12p==10b10.5-----2s9------9---------|
|----------------------------------------------------------------------------------|
|----------------------------------------------------------------------------------|
|----------------------------------------------------------------------------------|
|
|   S  S     S    S     e        S  S S S e  S    S  S      S e a E    e    S    
|----------------------------------------------------------------------------------|
|---3--3-----3----2-----3--------3--3-3-2-3--3----3--3------2-3--------------------|
|---3--3-----3----2-----3--------3--3-3-2-3--3----3--3------2-3--------------------|
|---2--2-----2----1-----2--------2--2-2-1-2--2----2--2------1-2--------3----5p===3-|
|---3--3-----3----2-----3--------3--3-3-2-3--3----3--3------2-3-4s5----------------|
|----------------------------------------------------------------------------------|


  ~~                                                    ~~~
  Q.    E.    +S       +S   +S       +Q    +S   +S  e e E
|---------------------------------------------------------|
|-8----10b12r(10)b12==(10)r(10)b12==(10)--(10)r(10)-8-9-8-|
|---------------------------------------------------------|
|---------------------------------------------------------|
|---------------------------------------------------------|
|---------------------------------------------------------|
|
| T     ~~~~~~          T             ~~~~
| Q.    Q               E             Q.            E E E
|---------------------------------------------------------|
|---------------------------------------------------------|
|-4-----4---------------3-------------4-------------------|
|-3-----3---------------2-------------3-------------------|
|-2-----2---------------1-------------2-------------3-4-5-|
|-3---------------------2-------------3-------------------|


 ~~~~~                                                          ~~
  +E   e  E Q.     S     S S +S  e   S     S      S     +S    T S.
|-------------------------------------------------------------------|
|-(8)-(6)----------8b11==8-8r(8)-8---8pb11-8pb9.5-8pb11r(8)---6h8---|
|-------------------------------------------------------------------|
|-------------------------------------------------------------------|
|-------------------------------------------------------------------|
|-------------------------------------------------------------------|
|
|  Q.       e  E E Q.              a e            E         a e
|-------------------------------------------------------------------|
|------------------6------------------------------------------------|
|--5---------------5------------------------------------------------|
|--4-----------4---4---------------3h5------------3-----------------|
|--5--------5----5-5----------------------------------------3h5-----|
|-------------------------------------------------------------------|


  ~~~~                                      ~~~
                         |3-|
  E E   S S S  S E     E S  E E a e a E E a E
|---------------------------------------------|
|-8-8---6-------------------------------------|
|---------7-6--5-3b3.5------------------------|
|----------------------5-3s=0---3h5-8p5---3h5-|
|---------------------------------------------|
|---------------------------------------------|
|
| ~         ~~                              ~~~
| Q   a S S Q.           Q      a E a E E a E
|---------------------------------------------|
|---------------------------------------------|
|-3---------3---------------------------------|
|-----5s3s5--------------5\---------3h5---3h5-|
|-------------------------------3h5-----------|
|---------------------------------------------|


 ~~~~~                    ~~~~~~~
  +Q.     E E S   +S    T S. +Q     S S S S     S S
|---------3------------------------------------------|
|---------3-6-----------------------6---3------------|
|-------------5b7r(5)---3h5--(5)------5---3b3.5------|
|-(5)-------------------------------------------5p3--|
|----------------------------------------------------|
|----------------------------------------------------|
|
|~~~~~                  ~~
| +Q.   a E E E       a Q.        a E   E       E
|----------------------------------------------------|
|----------------------------------------------------|
|----------------------------------------------------|
|-(5)---3h5-3----------------------------------------|
|-------------5\------1h3---------1h3---1------------|
|-----------------------------------------------3----|


  ~~    ~~~~~~               ~
  Q   a E +E   S S S   +S  S E S  E   a  E     S  S  S     a      +S
|---------------------------------------------15----------------------||
|--------------3------------------------------15-18-------------------||
|-----3h4-(4)----5-3b4-(3)--------------17b19-------17b19-17pb19r(17)-||
|-5------------------------5----------x-------------------------------||
|----------------------------5-5/-------------------------------------||
|---------------------------------------------------------------------||
|
| ~~                       ~
| Q.       S S S S E       Q      S S    E     E     E
|---------------------------------------------------------------------||
|---------------------------------------------------------------------||
|---------------------------------------------------------------------||
|-5----------------5\--------------------3-----4-----5----------------||
|--------------5h7---------5------5-5---------------------------------||
|----------5h7--------------------------------------------------------||


                ~~~                                                          ~~~~~~~~
                                 |--3--|
   E         T  S.  +E   e    E  S  S  S  s  T     +T   s  S  s  s  T  T  T  
|-------------------------------------------------------------------------------------------------|
|-------------------------------------------------------------------------------------------------|
|-15b16-----------------15------------15-17-17b19r(17)----15-17-17-17p15-------------15b16-17p15--|
|-----------17-17--(17)---------15-17------------------17----------------17-17-(17)---------------|
|-------------------------------------------------------------------------------------------------|
|-------------------------------------------------------------------------------------------------|
|
|  S     S   E       E   S  S E  E        S  S          E     E     E           
|-------------------------------------------------------------------------------------------------|
|-11----11/-------------11-11------------11-11---------------------11----------(11)/--------------|
|-10----10/-------------10-10------------10-10---------------------10----------(10)/--------------|
|--9-----9/--------------9--9-------------9--9----------------------9-----------(9)/--------------|
|-10----10/-------------10-10------------10-10---------------------10----------(10)/--------------|
|-------------------------------------------------------------------------------------------------|


                                                            ~~~~~~~
                              |--3--|  |3-|
   +S   S   e     e     E     S  S  S  S  e  T      +T   T  T  +E   e     s  
|-------------------------------------------------------------------------------15---17---17pb19r(17)----|
|----------18b20-18b20---------------------------------------------------15-17------------------------17-|
|-(15)-----------------------15-17----15-17-17pb19r(17)p15---------15b16---------------------------------|
|------17--------------------------17----------------------17-(17)---------------------------------------|
|--------------------------------------------------------------------------------------------------------|
|--------------------------------------------------------------------------------------------------------|
|
|   S   S   E     E     S  S  E        E     S           S      E   E     E     
|--------------------------------------------------------------------------------------------------------|
|--11--11/-------------11-11----------------11----------11---------------11----(11)/---------------------|
|--10--10/-------------10-10----------------10----------10---------------10----(10)/---------------------|
|---9---9/--------------9--9-----------------9-----------9----------------9-----(9)/---------------------|
|--10--10/-------------10-10----------------10----------10---------------10----(10)/---------------------|
|--------------------------------------------------------------------------------------------------------|


                                ~~
             |-3-|  |--3--|                                      |--3--|
   S  S     +E   S  T  T  T  S  Q      S     +S   S  S  S     S  T  T  T  S  
|-15-18b20-(18)-18-15h18p15----15----------------15----------------------------------------------|
|---------------------------18--------18b20-(18)----18-------------------------------------------|
|------------------------------------------------------17b19-17-15h17p15----15h17--15b17-(15)----|
|------------------------------------------------------------------------17-------------------17-|
|------------------------------------------------------------------------------------------------|
|------------------------------------------------------------------------------------------------|
|
|  S  S      E      E           S S E  E          S  S  E        E           
|--3--3-------------------------3-3---------------3--3-----------------------3-----(3)/----------|
|--3--3-------------------------3-3---------------3--3-----------------------3-----(3)/----------|
|--3--3-------------------------3-3---------------3--3-----------------------3-----(3)/----------|
|--2--2-------------------------2-2---------------2--2-------------------------------------------|
|--3--3-------------------------3-3---------------3--3-------------------------------------------|
|------------------------------------------------------------------------------------------------|


   S     S  S  S     S  S  S     S  S  S     S  S  S     S  S  S     S  S    
|-----------------------------------------------------------------------------------------------------|
|-------15-18-------15-18-------15-18-------15-18-------15-18-------15-18-----------------------------|
|-17b19-------17b19-------17b19-------17b19-------17b19-------17b19---------17b19-17-15b17-(15)-------|
|-----------------------------------------------------------------------------------------------17p15-|
|-----------------------------------------------------------------------------------------------------|
|-----------------------------------------------------------------------------------------------------|
|
|  S     S  E        E     S     S  E        E     S     S  E        E    a  
|--3-----3-----------------3-----3-----------------3-----3--------------------------------------------|
|--3-----3-----------------3-----3-----------------3-----3--------------------------------------------|
|--3-----3-----------------3-----3-----------------3-----3--------------------------------------------|
|--2-----2-----------------2-----2-----------------2-----2----------------------------3----------5----|
|--3-----3-----------------3-----3-----------------3-----3----------------3h=5------------------------|
|-----------------------------------------------------------------------------------------------------|


   ~~     ~~      ~~
   Q   a  E  +E   Q    S  S  S  a  S  S  S  a  E E E
|----------------------------------------------------|
|----------------15---17p15--------------------------|
|-----15h16-(16)------------17-15h16-----------------|
|-17---------------------------------17----15h17-----|
|---------------------------------------17-----------|
|----------------------------------------------------|
|
|  ~~         ~~~~  T  T
|  Q      E   Q     E  Q.                      E E E
|----------------------------------------------------|
|----------------------------------------------------|
|--4------4---4-----3--4-----------------------------|
|--3----------3-----2--3-----------------------------|
|-------------------1--2-----------------------3-4-5-|
|--3----------3-----2--3-----------------------------|


                       ~~                   ~~
  Q.    e     S  S  e  Q   S  S       S  S  E  e
|------17b19----------------------------------------|
|------------15----15-15--17-15---------------------|
|---------------17--------17-15b16------------15b16-|
|------------------------------------17-15-17-------|
|---------------------------------------------------|
|---------------------------------------------------|
|
| ~~                   ~~
| Q.    E     E     E  Q   e       a  E     E  E
|---------------------------------------------------|
|-6--------------------6----------------------------|
|-5--------------------5----------------------------|
|-4-----------4--------4---5-------3h=5-----3-------|
|-5-----5-----------5--5-----------------------5----|
|---------------------------------------------------|


                                                                                                  ~~
                                                       |--3--|
   E     S  S    E       S   S  E     S  S  S     S  T  T  T  S  a  E  S  S  
|------------------------------------------------------------------------------------------|
|-15----15-18---15------15--18-15----15-18-------------------------------------------------|
|-17b19---------17b19----------17b19-------17b19-17-15h17p15----15h16--------------15h16---|
|------------------------------------------------------------17-------17----15h17----------|
|------------------------------------------------------------------------17----------------|
|------------------------------------------------------------------------------------------|
|
|  ~~~~~                 ~~~
|  Q          a  S    S  Q.                 E        E           a  E  E     
|------------------------------------------------------------------------------------------|
|------------------------------------------------------------------------------------------|
|--3---------------------3-----------------------------------------------------------------|
|-------------5s=3s===5---------------------5\-------------------------5---------------5---|
|----------------------------------------------------------------3h=5----------------------|
|------------------------------------------------------------------------------------------|


    ~~~~                             ~~~                         ~~~
                                                  |--3--|
   +Q    S  s    E    E  S      +S   Q    S  S    T  T  T  S  e  e
|---------------17b19---17pb19r(17)------18-18---15h18p15----15-15-|
|-------15-17-----------------------17--------------------17-------|
|-(16)-------------------------------------------------------------|
|------------------------------------------------------------------|
|------------------------------------------------------------------|
|------------------------------------------------------------------|
|
|   ~~~~                             ~~~
|  +Q.        a  E    E  E           Q.        a  E           E  E
|------------------------------------------------------------------|
|------------------------------------------------------------------|
|------------------------------------------------------------------|
|--(5)--------3h=5----3--------------------------------------------|
|------------------------5\----------3---------1h=3-----------1----|
|----------------------------------------------------------------3-|


 ~~~~~~~                                    ~~
   Q.      S  S  S     S  S     S  a  S  S  Q      S  S  S  S  a  e
|---------15----------------------------------------------------------||
|-18b20------18-------------------------------------------------------||
|---------------17b19-17-15b16----15h16-----------15----15-------15---||
|------------------------------17-------17--------15-17-15-17-15h17---||
|------------------------------------------17-------------------------||
|---------------------------------------------------------------------||
|
|  ~~~~~                              ~~
|  Q.      S  S  S     S  E           Q       S S  S  S  E        E
|---------------------------------------------------------------------||
|---------------------------------------------------------------------||
|---------------------------------------------------------------------||
|--5----------------------5\-----------------------3--5--3--------5---||
|----------------5h====7--------------5-------5-5---------------------||
|----------5h=7-------------------------------------------------------||





3rd Verse:

   E         E  E  E        E  E  E        E  E  S     +S    E     S  S
|--------------15-------------15-------------15-------------------------|
|-----------15-------------15-------------15----------------------------|
|-17b19-----------17b19----------17b19----------17b19r(17)--15b16-------|
|-----------------------------------------------------------------17p15-|
|-----------------------------------------------------------------------|
|-----------------------------------------------------------------------|
|
|  S     S   E  E  S     S  E  E  S     S  E  E  E          +E     E
|-----------------------------------------------------------------------|
|-11----11/-------11----11-------11----11-------11---------(11)/--------|
|-10----10/-------10----10-------10----10-------10---------(10)/--------|
|--9-----9/--------9-----9--------9-----9--------9----------(9)/--------|
|-10----10/-------10----10-------10----10-------10---------(10)/--------|
|-----------------------------------------------------------------------|


                                  ~~~~~                      ~~~~~
   E         E  E  E        E  E  Q          S  S  S     s   E    a  E
|--------------15-------------15------------15-------------------------|
|-----------15-------------15----18b20---------18----------------------|
|-17b19-----------17b19---------------------------17b19-15--17---------|
|----------------------------------------------------------------15h17-|
|----------------------------------------------------------------------|
|----------------------------------------------------------------------|
|
|  S     S   E  E  S     S  E  E  S     S E  E     E        +E       E
|----------------------------------------------------------------------|
|-11----11/-------11----11-------11----11---------11-------(11)/-------|
|-10----10/-------10----10-------10----10---------10-------(10)/-------|
|--9-----9/--------9-----9--------9-----9----------9--------(9)/-------|
|-10----10/-------10----10-------10----10---------10-------(10)/-------|
|----------------------------------------------------------------------|


   E       S  S  E     E    E  E  E       E  E  S     +S   E    E
|----------------------------------------15-----------------------|
|---------15-18-------15---18-15------------18--------------------|
|-17b19---------17b19------------17b19---------17b19r(17)-15------|
|--------------------------------------------------------------17-|
|-----------------------------------------------------------------|
|-----------------------------------------------------------------|
|
|  S    S  E     E     S S  E  E  S    S  E  E  E         +E    E
|--3-------------------3----------3-------------3---------(3)/----|
|--2----3--------------2-3--------2----3--------3---------(3)/----|
|--3----2--------------3-2--------3----2--------3---------(3)/----|
|--2----3--------------2-3--------2----3--------------------------|
|--3----2--------------3-2--------3----2--------------------------|
|-----------------------------------------------------------------|


                                          ~~             ~~~~
   E       E  E  E       E  S  S  E       Q    S  S     +E   S  S
|-18b19---15----18b19---15-------18b20---18---15------------15----|
|------------15------------15-15-----------------18b20-(18)----18-|
|-----------------------------------------------------------------|
|-----------------------------------------------------------------|
|-----------------------------------------------------------------|
|-----------------------------------------------------------------|
|
|  S    S  E  E  S    S  E  E     S    S  E E  e         e   e
|--3----3--------3----3-----------3----3--------------------------|
|--3----3--------3----3-----------3----3--------------------------|
|--3----3--------3----3-----------3----3--------------------------|
|--2----2--------2----2-----------2----2-----------------3---5----|
|--3----3--------3----3-----------3----3-------5------------------|
|-----------------------------------------------------------------|


   ~~~~~                                             ~~~
                                            |--3--|
   Q.      +E  E E e  E E Q.       Q.   Q   E     S  Q.    S  S  E       S  S
|--------------------------------|---------10----10-10----12-10----------------|
|------------------3-------------|---------11b12----11-------11-11b11.5--------|
|-15b16---(15)-----4-------------|--------------------------------------12p10--|
|------------------3-------------|---------------------------------------------|
|--------------------------------|---------------------------------------------|
|--------------------------------|---------------------------------------------|
|
|  T        T    T ~~                                      ~~
|  Q.       Q    E Q.     E  E E   Q.   Q   E        Q.    E     E       E
|--------------------------------|---------------------------------------------|
|--------------------------------|-6----6------------6-------------------------|
|--4--------4----3-4-------------|-5----5---4--------5-------------------------|
|--3--------3----2-3-------------|-4----4------------4-----5-----3-------------|
|-------------------------3--4-5-|-5----5------------5-------------------5-----|
|--3--------3----2-3-------------|---------------------------------------------|


                  H.=H
   ~~~                                    ~~~~~~~~       ~~     ~
                                                    |3-|             |-3--|
   H.             H.                Q   a E   +Q    E  s Q.   a Q    E    S
|--------------------------------|------------------------------------------|
|--------------------------------|------------------3---------------10b12---|
|-12-----------------------------|------3s4---(4)------5-5----7s9---------9-|
|--------------------------------|------------------------------------------|
|--------------------------------|------------------------------------------|
|--------------------------------|------------------------------------------|
|
|            ~~                     ~~~                  ~~
|  Q   a S S Q.   E  E E E E a E   +Q.      a  E  E E    Q.   a E E  E
|--------------------------------|------------------------------------------|
|--------------------------------|------------------------------------------|
|--3---------3-------------------|------------------------------------------|
|------5s3s5------5\-----5---3s5-|-(5)------3h=5--3-------------------------|
|----------------------5---------|------------------5\---3----1h3-1---------|
|--------------------------------|-----------------------------------3------|


 6/8               4/4
  ~~
  E  +E   E  Q.      Q   S S S S S a S S a S   S  S S S   +Q   Q  H
|-----------------|-------------------------------------:--------------*|
|-8--(8)\---------|------6---3--------------------------:--------------*|
|-----------------|--------5---3-5-3h4---3h4------------:--------------*|
|-----------------|--------------------5-------5--------:--------------*|
|-----------------|-------------------------------5-3-2-:-(2)----------*|
|-----------------|-------------------------------------:--------------*|
|
|            TP      TP
| E   E   E  Q.      H.                       +Q           Q   Q  H
|-----------------|-------------------------------------:--------------*|
|-----------12----|-11-----------------------(11)-------:-11\----------*|
|-----------11----|-10-----------------------(10)-------:-10\----------*|
|-5\--------10----|--9------------------------(9)-------:--9\----------*|
|-----------11----|-10-----------------------(10)-------:-10\----------*|
|-----------------|-------------------------------------:--------------*|

comments
We did not receive enough feedback on this tab! Please rate:
1 2 3 4 5
1 comment total.
0 reply
dougislegend wrote on February 5 2014, 12:16 am

Awesome! Spot on!

I want to post or [tab]
guest
You may want to rate the tab now too:
select rating
Please do not post tabs as comments. Select "correction" instead!