Oops, an error
Loading. Please wait.

White Room Tab

ver4
ver4

Whole song

Interactive

More versions @911Tabs.com
5,148 views 3 this week
3 commentsread comments
1 2 3 4 5
accurate
x 8
Autoscroll
+/-
esc
set tempo
stop
WARNING: You are trying to view
                                    content from Ultimate-Guitar.com
                                    in an unauthorized application,
                                    which is prohibited.

                                    Please use an official Ultimate
                                    Guitar Tabs application for iPhone,
                                    iPad or Android to access legitimate
                                    chords, guitar, bass, and drum tabs
                                    from Ultimate-Guitar.com database.

                                    Type "ultimate guitar tabs" in Apple
                                    App Store's or Android Market's
                                    search to find the application.
Gtr I, II, III, IV (E A D G B E) - 'Eric Clapton Elec. Gtr.'

 Intro
  Moderate Rock Q=116

 5/4
  Gtrs I, II
   ~~~~~~~~~~~~~~~~~~~~~~~~~~~~~~~~~~~~~~~
   W         +Q      W             +Q
|-10--------(10)--|--8-------------(8)\--|
|-11--------(11)--|-10------------(10)\--|
|-----------------|----------------------|
|-----------------|----------------------|
|-----------------|----------------------|
|-----------------|----------------------|
|
| Gtr III
|  ~~~~~~~~~~~~~~~~~~~~~~~~~~~~~~~~~~~~~~~
|  W         +Q      H     +H.
|-----------------|----------------------|
|-----------------|----------------------|
|-12--------(12)--|-10----(10)-----------|
|-----------------|----------------------|
|-----------------|----------------------|
|-----------------|----------------------|



 ~~~~~~~~~~~~~~~~~~~~~~~~~~~~~~~~~~~~~~~~~
   H     +H.           W             +Q
|--------------------|-----------------------|
|-10----(10)---------|-8-------------(8)/----|
|-10----(10)---------|-9-------------(9)/----|
|--------------------|-----------------------|
|--------------------|-----------------------|
|--------------------|-----------------------|
|
|~~~~~~~~~~~~~~~~~~~
|  W            +Q     H.      +E. S  Q
|--------------------|-----------------------|
|--------------------|-----------------------|
|--7------------(7)--|-5-------(5)h7p=5------|
|--------------------|-----------------------|
|--------------------|-----------------------|
|--------------------|-----------------------|


    ~~~~~~~~~~~~~~~~~~~~
    W         +Q      W          E   E
|-/10--------(10)--|--8---------(8)-(8)-|
|--11--------(11)--|-10---------10s==6--|
|------------------|--------------------|
|------------------|--------------------|
|------------------|--------------------|
|------------------|--------------------|
|
|   ~~~~~~~~~~~~~~~~~~~~~~~~~~~~~~~~~~~~~
|   W         +Q      W         +Q
|------------------|--------------------|
|------------------|--------------------|
|--12--------(12)--|-10--------(10)-----|
|------------------|--------------------|
|------------------|--------------------|
|------------------|--------------------|


                                   4/4
   ~~~~~~~~~~~~~~~~~~~~~~~~~~~~~~~~~~~~~
   W         +Q     W        +Q     +H.      Q
|-----------------|---------------|-------------||
|-10--------(10)--|-8--------(8)--|-(8)---------||
|-10--------(10)--|-9--------(9)--|-(9)---------||
|-----------------|---------------|-------------||
|-----------------|---------------|-------------||
|-----------------|---------------|-------------||
|
|~~~~~~~~~~~~~~~~
|  W         +Q     W        +Q     +H.      Q
|-----------------|---------------|-------------||
|-----------------|---------------|-------------||
|--7---------(7)--|-5--------(5)--|-(5)---------||
|-----------------|---------------|-------------||
|-----------------|---------------|-------------||
|-----------------|---------------|-------------||


 1st Verse

  Gtr I
  Q  E. S e E Q    Q  E E E E E E   Q  Q  E E E E   E E E E E E E E
|-2--------------|----------------|---------------|-----------------|
|-3--------------|----------------|-3--3--------3-|-----------------|
|-2--2--2-----0--|----0---3---5---|-2--2------0---|-----0---3---5---|
|-0--0--0--------|--------3---5---|-0--0------0---|---------3---5---|
|---------3-3----|-2------1---3---|-------3-3-----|-2-2-----1---3p0-|
|----------------|------1---3-----|---------------|-------1---3-----|
|-Rhy Fig 1


  Q  E. S E E Q    Q  E E E E E E   Q  E. S E E E. S   E E Q  E E Q
|-2--------------|----------------|-2----------------|---------------|
|-3--------------|----------------|-3--3--3----------|---------------|
|-2--2--2-----0--|----0---3---5s2-|-2--2--2-----0--0-|-----0--3---5--|
|-0--0--0--------|----0---3---5s2-|-0--0--0-----0----|-----0--3---5--|
|---------3-3-3--|-2------1---3---|---------3-3------|-2-2----1-3-3--|
|----------------|------1---3-----|------------------|--------1-3----|


 
  Q  E. S e E Q    E E Q  E E E E   Q  E. S e E Q    E E E E E E E E
|-2--2--2--------|----------------|----------------|-----------------|
|-3--3--3--------|----------------|-3--3--3--------|-----------------|
|-2--2--2-----0--|-----0--3---5---|-2--2--2-----0--|-----0---3---5---|
|-0--0--0-----0--|-----0--3---5---|-0--0--0-----0--|-----0---3---5---|
|---------3-3----|-2-2----1---3p0-|---------3-3----|-2-2-----1---3p0-|
|----------------|----------3-----|----------------|-------1---3-----|



  Q  E. S e E Q    E E E E E E E E   Q  E. S e E Q    Q  Q  Q  Q
|-2--2--2--------|-----------------|-2--------------|-------------||
|-3--3--3--------|-----------------|-3--3--3--------|-------------||
|-2--2--2-----0--|-----0---3---5---|-2--2--2-----0--|----0-----0--||
|-0--0--0-----0--|-----0---3---5---|-0--0--0-----0--|-0--0-----0--||
|---------3-3----|-2-2-----1---3p0-|---------3-3----|-2-----1-----||
|----------------|-------1---3-----|----------------|-------------||
                                                    end Rhy Fig 1-|

 1st Bridge
  C C                              G/B                               Bb
  E. S S S S S S S S S S S S S     S S S S S S S S S S S S S S S S
  |  | | | | | | | | | | | | |     | | | | | | | | | | | | | | | |
  /  / / / / / / / / / / / / /     / / / / / / / / / / / / / / / /

  ~~                               ~~~~~~~~~~~~~~~~~~~~~~~~~~
  W                              a H               Q       Q         H    H
|------------------------------|-----------------------------------|-----------|
|-1----------------------------|---3---------------0-------3-------|-3----3----|
|-0----------------------------|---0---------------0-------0-------|-3----3----|
|-2----------------------------|---0---------------0-------0-------|-3----3----|
|-3----------------------------|-0h2---------------2-------2-------|-1----1----|
|------------------------------|-----------------------------------|-----------|



                        ~~
  W          W          Q.   E E Q.
|----------|----------|---------------|
|-2--------|-1--------|-0----0---0----|
|-2--------|-0--------|-0------0-0----|
|-2--------|-2--------|-0--------0----|
|-0--------|-3--------|-2-------------|
|----------|----------|---------------|



  W          W          H    S S E E E   Q  Q  H
|----------|----------|----------------|------------||
|-3--------|-5--------|-7--------------|------------||
|-3--------|-5--------|-7--------7-7---|-7----------||
|-3--------|-5--------|-7----7h9-----9-|------------||
|-1--------|-3--------|-5--------------|------------||
|----------|----------|----------------|------------||


 2nd Verse

Gtr II plays Rhy Fig 1
  Gtr I
  W                W
|----------------|----------------|
|----------------|----------------|
|----------------|----------------|
|----------------|----------------|
|----------------|----------------|
|----------------|----------------|



  Q   Q    E  E  E  E    E  E     E  E  a  E E  E   E
|---------------------|-------------------------------|
|--------/13-13-13p10-|-------------------------------|
|---------------------|-12-10b11----------------------|
|----12---------------|----------12-10------------/12-|
|---------------------|----------------12-10-8--------|
|---------------------|------------------------10-----|




  W                W                Q  E   E        +Q      E      +E
|----------------|----------------|--------------------------------------|
|----------------|----------------|----x--10-------(10)----10-----(10)---|
|----------------|----------------|----x--12b14====(12)r---12b14==(12)---|
|----------------|----------------|--------------------------------------|
|----------------|----------------|--------------------------------------|
|----------------|----------------|--------------------------------------|




    E    E      +Q     E     E  E     E
|-----------------------------------------|
|--10-----------------------13------------|
|-(12)r-12b14==(12)r--12b14----12b14-12---|
|-----------------------------------------|
|-----------------------------------------|
|-----------------------------------------|


      ~~~
   E  Q.      H        W                Q  E  S  S E  E  S  S  S  S
|--------------------|----------------|---------------------------------|
|--------------------|----------------|---------------------------------|
|-10-----------------|----------------|-----------------10----10-12b14==|
|----12--------------|----------------|--------------12----12-----------|
|--------------------|----------------|----x--8s12----------------------|
|--------------------|----------------|----x----------------------------|



   +E    S  S  S  S     +S   S  S  S  S  S  Q
|-------10---------------------------------------|
|----------13-10---------------------------------|
|-(12)r----------12b14r(12)p10-12-10-------------|
|------------------------------------12p10-12\---|
|------------------------------------------------|
|------------------------------------------------|




  W                W                 Q  E   E         S  S  E  S  S  S  S
|----------------|-----------------|--------------------------------------|
|----------------|-----------------|----x---------------------------------|
|----------------|-----------------|----x--10b10.5------------10----12-10-|
|----------------|-----------------|-----------------12p10-12----12-------|
|----------------|-----------------|--------------------------------------|
|----------------|-----------------|--------------------------------------|



   E     S  S  S  S     +S   S  S  S  E  S  E.
|-----------------------------------------------||
|-------10--------------------------------------||
|-12b14----13p10--------------------------------||
|----------------12b14r(12)p10-12p10----10h12\--||
|------------------------------------12---------||
|-----------------------------------------------||



 2nd Bridge
  C C                              G/B                               Bb
  E. S S S S S S S S S S S S S     S S S S S S S S S S S S S S S S
  |  | | | | | | | | | | | | |     | | | | | | | | | | | | | | | |
  /  / / / / / / / / / / / / /     / / / / / / / / / / / / / / / /

  Gtr I
  ~~                               ~~~~~~~~~~~~~~~~~~~~~~~~~~
  W                              a H               Q       Q         H    H
|------------------------------|-----------------------------------|-----------|
|-1----------------------------|---3---------------0-------3-------|-3----3----|
|-0----------------------------|---0---------------0-------0-------|-3----3----|
|-2----------------------------|---0---------------0-------0-------|-3----3----|
|-3----------------------------|-0h2---------------2-------2-------|-1----1----|
|------------------------------|-----------------------------------|-----------|



                        ~~
  W          W          Q.   E E Q.
|----------|----------|---------------|
|-2--------|-1--------|-0----0---0----|
|-2--------|-0--------|-0------0-0----|
|-2--------|-2--------|-0--------0----|
|-0--------|-3--------|-2-------------|
|----------|----------|---------------|



  W          W          H    +E  E Q
|----------|----------|---------------||
|-3--------|-5--------|-7----(7)-7----||
|-3--------|-5--------|-7----(7)---7--||
|-3--------|-5--------|-7----(7)------||
|-1--------|-3--------|-5----(5)------||
|----------|----------|---------------||


 1st Interlude

 5/4
  Gtrs I, II
   ~~~~~~~~~~~~~~~       ~~~~~~~~~~~~~~~~~~~~~~~~~~~~~~~~~~~~~~~~~~~~~~~~~~
   W         +E    E     W         +Q       W         +Q     W        +Q
|-10--------(10)-(10)-|--8---------(8)\--|-----------------|------------------|
|-11--------(11)s=10--|-10--------(10)\--|-10--------(10)--|-8--------(8)/----|
|---------------------|------------------|-10--------(10)--|-9--------(9)/----|
|---------------------|------------------|-----------------|------------------|
|---------------------|------------------|-----------------|------------------|
|---------------------|------------------|-----------------|------------------|
|
| Gtrs III, IV
|  ~~~~~~~~~~~~~~~~~~~~~~~~~~~~~~~~~~~~~~~~~~~~~~~~~~~~~~~
|  W         +Q          W         +Q       W         +Q     W        +Q
|---------------------|------------------|-----------------|------------------|
|---------------------|------------------|-----------------|------------------|
|-12--------(12)------|-10--------(10)---|--7---------(7)--|-5--------(5)-----|
|-12--------(12)------|-10--------(10)---|--7---------(7)--|-5--------(5)-----|
|-10--------(10)------|--8---------(8)---|--5---------(5)--|-3--------(3)-----|
|---------------------|------------------|-----------------|------------------|


    ~~~~~~~~~~~~~~~~~~~~
    W         +Q      W          E   E
|-/10--------(10)--|--8---------(8)-(8)-|
|--11--------(11)--|-10---------10s==6--|
|------------------|--------------------|
|------------------|--------------------|
|------------------|--------------------|
|------------------|--------------------|
|
|   ~~~~~~~~~~~~~~~~~~~~~~~~~~~~~~~~~~~~~
|   W         +Q      W         +Q
|------------------|--------------------|
|------------------|--------------------|
|--12--------(12)--|-10--------(10)-----|
|--12--------(12)--|-10--------(10)-----|
|--10--------(10)--|--8---------(8)-----|
|------------------|--------------------|


                                   4/4
   ~~~~~~~~~~~~~~~~~~~~~~~~~~~~~~~~~~~~~
   W         +Q     W        +Q     +H.      Q
|-----------------|---------------|-------------||
|-10--------(10)--|-8--------(8)--|-(8)---------||
|-10--------(10)--|-9--------(9)--|-(9)---------||
|-----------------|---------------|-------------||
|-----------------|---------------|-------------||
|-----------------|---------------|-------------||
|
|~~~~~~~~~~~~~~~~
|  W         +Q     W        +Q      H.      Q
|-----------------|---------------|-------------||
|-----------------|---------------|-------------||
|--7---------(7)--|-5--------(5)--|-(5)---------||
|--7---------(7)--|-5--------(5)--|--5----------||
|--5---------(5)--|-3--------(3)--|--0----------||
|-----------------|---------------|-------------||


 3rd Verse
Gtr II plays Rhy Fig 1
  Gtr I
                                                                ~~~
  Q  E   E    E     E  a  S  S   E      Q   Q    a  E  E  S  S  E
|-----------------------------------|------14---------------------|
|-------13--------------------------|-----------------------------|
|------------12b14-12-10h12p10------|-/14--14---10s12-10-12p10-12-|
|------------------------------(12)-|-----------------------------|
|-----------------------------------|-----------------------------|
|-----------------------------------|-----------------------------|


 ~~~~~~
   +E  E  S  S  S  S  +H           Q    E  E  +E   E  E  E
|--------------14---------------|------12---------12---------|
|-------------------------------|----------------------------|
|-(12)---12s14----14-(14)s======|=12------12-(12)----12s14---|
|-------------------------------|----------------------------|
|-------------------------------|----------------------------|
|-------------------------------|----------------------------|


                            ~~             ~~~
    H         E  E  E  E    Q  E  E  E  E  Q
|--14--------15p14-15p14-|---------------------|
|------------------------|-15----------15-15---|
|-(14)-------------------|-----5s16-16---------|
|------------------------|---------------------|
|------------------------|---------------------|
|------------------------|---------------------|



   S  S  E  E   E    +Q     E.     +S      E  E     +Q    E  Q        +E
|----------17---------------------------|----------------17-----------------|
|-15-15-15-----15---(15)---17b18==(17)r-|-17-17b18r(17)-----17pb18r==(17)---|
|---------------------------------------|-----------------------------------|
|---------------------------------------|-----------------------------------|
|---------------------------------------|-----------------------------------|
|---------------------------------------|-----------------------------------|


   ~~
   Q   S   S  S  S  S  S  S  S  S  S  S  S
|------------------------------------------|
|-15------15-18p15----18p15----18p15----18p|
|-----16-----------17-------17-------17----|
|------------------------------------------|
|------------------------------------------|
|------------------------------------------|


   S  S  S  S  S  S  S  S  S  S  S  S  S  S  S  S
|-------------------------------------------------|
|-15----18p15----18p15----18p15----18p15----18p15-|
|----17-------17-------17-------17-------17-------|
|-------------------------------------------------|
|-------------------------------------------------|
|-------------------------------------------------|


        ~~~            ~~
  E  e  q     S  S  e  q     S  S  e  S  S  e  S  S  e  S  S  e
|-------------------------|-------------------------------------|
|-x-15-15----12-15-15-15--|-12-15-15-12-15-15-12-15-15-12-15-15-|
|-------------------------|-------------------------------------|
|-------------------------|-------------------------------------|
|-------------------------|-------------------------------------|
|-------------------------|-------------------------------------|


   E     E  E   E    Q    E  E
|-------17------------------17b19--|
|-17b19----15-------15-------------|
|--------------16--------16--------|
|----------------------------------|
|----------------------------------|
|----------------------------------|



   E      +E  Q    E  S     +S   E  S  S
|-17pb19r(17)-----17---------------------|
|--------------------17b18r(17)-15-15----|
|-------------0-----------------------16-|
|----------------------------------------|
|----------------------------------------|
|----------------------------------------|



         ~~~                                         ~~~
   e  e  Q     E      +E    E  E       +E   E  E  E  E.  S  Q
|--------------------------17-------|----------------------------||
|-15-15-15----17b19==(17)r----17b19r|=(17)-15-17----15--15-------||
|-----------------------------------|------------16--------16\---||
|-----------------------------------|----------------------------||
|-----------------------------------|----------------------------||
|-----------------------------------|----------------------------||



 3rd Bridge
  C                                G/B                               Bb
  E. S S S S S S S S S S S S S     S S S S S S S S S S S S S S S S
  |  | | | | | | | | | | | | |     | | | | | | | | | | | | | | | |
  /  / / / / / / / / / / / / /     / / / / / / / / / / / / / / / /

  Gtr I
  ~~                               ~~~~~~~~~~~~~~~~~~~~~~~~~~
  W                              a H               Q       Q         H    H
|------------------------------|-----------------------------------|-----------|
|-1----------------------------|---3---------------0-------3-------|-3----3----|
|-0----------------------------|---0---------------0-------0-------|-3----3----|
|-2----------------------------|---0---------------0-------0-------|-3----3----|
|-3----------------------------|-0h2---------------2-------2-------|-1----1----|
|------------------------------|-----------------------------------|-----------|


                        ~~
  W          W          Q.   E E Q.
|----------|----------|---------------|
|-2--------|-1--------|-0----0---0----|
|-2--------|-0--------|-0------0-0----|
|-2--------|-2--------|-0--------0----|
|-0--------|-3--------|-2-------------|
|----------|----------|---------------|



  W          W          E E E E E E E E
|----------|----------|-----------------||
|-3--------|-5--------|-------3-3-3-3---||
|-3--------|-5--------|---2---2-2-2-2---||
|-3--------|-5--------|-4---4---4-4-4-0-||
|-1--------|-3--------|-----------------||
|----------|----------|-----------------||


 2nd Interlude

 5/4
     Gtrs I, II
      ~~~~~~~~~~~~~~~       ~~~~~~~~~~~~~~~~~
      W         +E    E     W         +Q
|----10--------(10)-(10)-|--8---------(8)\--|
|----11--------(11)s=10--|-10--------(10)\--|
|------------------------|------------------|
|------------------------|------------------|
|------------------------|------------------|
|------------------------|------------------|
|
| Gtrs III, IV
|     ~~~~~~~~~~~~~~~~~~~~~~~~~~~~~~~~~~~~~~~
|  a  W         +Q          W         +Q
|------------------------|------------------|
|------------------------|------------------|
|-10h12--------(12)------|-10--------(10)---|
|----12--------(12)------|-10--------(10)---|
|----10--------(10)------|--8---------(8)---|
|------------------------|------------------|



 ~~~~~~~~~~~~~~~~~~~~~~~~~~~~~~~~~~~~~~~~
   W         +Q     W               +Q
|-----------------|------------------------|
|-10--------(10)--|-8---------------(8)/---|
|-10--------(10)--|-9---------------(9)/---|
|-----------------|------------------------|
|-----------------|------------------------|
|-----------------|------------------------|
|
|~~~~~~~~~~~~~~~~
|  W         +Q     H.      +E.  S   Q
|-----------------|------------------------|
|-----------------|------------------------|
|--7---------(7)--|-5-------(5)h=7p==5-----|
|--7---------(7)--|-5-------(5)-(5)-(5)----|
|--5---------(5)--|-3-------(3)-(3)-(3)----|
|-----------------|------------------------|



    ~~~~~~~~~~~~~~~~~~~~                   ~~~~~~~~~~~~~~~~~~~~~~~~~~~~~~
    W         +Q      W          E   E     W         +Q     W        +Q
|-/10--------(10)--|--8---------(8)-(8)-|-----------------|----------------||
|--11--------(11)--|-10---------10s==8--|-10--------(10)--|-8--------(8)---||
|------------------|--------------------|-10--------(10)--|-9--------(9)---||
|------------------|--------------------|-----------------|----------------||
|------------------|--------------------|-----------------|----------------||
|------------------|--------------------|-----------------|----------------||
|
|   ~~~~~~~~~~~~~~~~~~~~~~~~~~~~~~~~~~~~~~~~~~~~~~~~~~~~~
|   W         +Q      W         +Q         W         +Q     W        +Q
|------------------|--------------------|-----------------|----------------||
|------------------|--------------------|-----------------|----------------||
|--12--------(12)--|-10--------(10)-----|--7---------(7)--|-5--------(5)---||
|--12--------(12)--|-10--------(10)-----|--7---------(7)--|-5--------(5)---||
|--10--------(10)--|--8---------(8)-----|--5---------(5)--|-3--------(3)---||
|------------------|--------------------|-----------------|----------------||


  +W         +Q     +W         +Q
|-----------------|-----------------||
|-(8)--------(8)--|-(8)--------(8)--||
|-(9)--------(9)--|-(9)--------(9)--||
|-----------------|-----------------||
|-----------------|-----------------||
|-----------------|-----------------||
|
|  W         +Q     +W         +Q
|-----------------|-----------------||
|-----------------|-----------------||
|-----------------|-----------------||
|--5---------(5)--|-(5)--------(5)--||
|--0---------(0)--|-(0)--------(0)--||
|-----------------|-----------------||


 Outro Guitar Solo

 4/4
  Gtr II
                          ~~~~~         ~~~~~~~~~~~~~~
   Q      E  E  Q        +Q       E  E  Q        +Q      E  E
|--------10--------------------|-10---------------------10----|
|-----------13-----------------|----13---------------------13-|
|-12b14--------12b14====(12)r--|-------12b14====(12)r---------|
|------------------------------|------------------------------|
|------------------------------|------------------------------|
|------------------------------|------------------------------|
|
| Gtr I
|  Q      Q     E     E   Q       E  E  E     E   E   E  E  E
|--2------2--------------------|------------------------------|
|--3------3---------------3----|--------3---------------------|
|--2------2---------------0----|--------0---------3------5----|
|--0------0--------------------|------------------3------5----|
|---------------3-----3---3----|--2--2------------1------3--0-|
|------------------------------|--------------1-------3-------|
|-Rhy Fig 2                                     end Rhy Fig 2-|

Gtr II plays Rhy Fig 2 to fade
                             ~~~~~~~~~~
                                                                |---3---|
   E      +E   +E   E  E  E  Q     +Q     S  S  S  S  E  E      E  E    E
|-------------------------------|-----------------------------------------|
|-------------------------------|-----------------------------------------|
|-12b14==(12)r(12)-10-12----10--|-(10)---12-10----10-12-10b10.5---12p==10-|
|------------------------12-----|--------------12-------------------------|
|-------------------------------|-----------------------------------------|
|-------------------------------|-----------------------------------------|



                    ~~~~~
   |----3-----|
   Q  Q       Q     Q.        S  S
|----------------------------10----|
|----13b14---13b15-13b15--------13-|
|----------------------------------|
|-12-------------------------------|
|----------------------------------|
|----------------------------------|


                              ~~
  |----3-----|  |----3-----|
  E  E       E  E  E    S  S  H
|-------------------------------------|
|-------------------------------------|
|---12b14---12-10------10h12s14-------|
|-----------------12------------------|
|-------------------------------------|
|-------------------------------------|


   S  S  S  S  S  S  S  S  S  S  S  S  S  S  S  S
|-------13-------13-------13-------13-------13-----|
|-13h15----13h15----13h15----13h15----13h15----13h=|
|--------------------------------------------------|
|--------------------------------------------------|
|--------------------------------------------------|
|--------------------------------------------------|



   S  S  S  S  S  S  S  S  S  S  S  a  S  S  S  S  S
|----13-------13-------13-------13-------------------|
|-15----13h15----13h15----13h15----------------------|
|----------------------------------14s12-12p10-------|
|----------------------------------------------12p10-|
|----------------------------------------------------|
|----------------------------------------------------|



   ~~
   Q   S  S  S  S  Q       E  E
|-------------------------10-----|
|----------------------------13--|
|-----10----12p10-12b14----------|
|-12-----12----------------------|
|--------------------------------|
|--------------------------------|



                        |--3--|     |--3--|
   E     E  a  S  S  E  S  S  S  E  S  S  S  E
|----------------------------------------------|
|----------------------------------------------|
|-12b14-12-10h12p10----10h12p10----10h12p10----|
|-------------------12----------12----------12-|
|----------------------------------------------|
|----------------------------------------------|



   ~~
   Q   S  S  E  S  S  S  S  S  S  S  S    E  S  S  S S  E  +E.    S  E.   S
|--------------------------------------|------------------------------------|
|--------------------------------------|---------------13-(13)p==10-13p==10-|
|-10-----------------10----12-10-------|----10----10-x----------------------|
|-----12p10----10h12----12-------12p10-|-12----12---------------------------|
|-----------12-------------------------|------------------------------------|
|--------------------------------------|------------------------------------|


   S  S  Q    S  S  S  E    S  S  S  E
|------------10------------------------|
|-13p10-13------13-10-13p==10-13p10-13-|
|--------------------------------------|
|--------------------------------------|
|--------------------------------------|
|--------------------------------------|


                                                                          ~~~~~
                                                                                 |--3--|
   +S   S  S  S  S  S  S  S  E       S  S  E  E        +E.  +S   Q       +Q      E  E  E
|------10-------------------------------------------|--------------------------------------|
|-(13)----13p10----10------------------------10b13==|=(10)r(10)----------------------------|
|---------------12----10h12p10b10.5-----------------|-----------12b14===(12)r---10-13------|
|-----------------------------------12p10-12--------|---------------------------------12---|
|---------------------------------------------------|--------------------------------------|
|---------------------------------------------------|--------------------------------------|



          |--3--|
   E      S  S  S  S  S  E  S     S  S  S  S  S  S     S
|-----------------------------------------------------10-|
|--------------------------------------------------------|
|-12pb14-10h12p10----10-12-12b14-12-10----10-12-12b14----|
|-----------------12-------------------12----------------|
|--------------------------------------------------------|
|--------------------------------------------------------|


   S  S  S     S  S  S  S  S S  S  S  S  E  E
|---------------------------------------------|
|-13-10---------------------------------15-13-|
|-------12b14-12-10----12----x-10h12s14----14-|
|-------------------12----12------------------|
|---------------------------------------------|
|---------------------------------------------|


   ~~                                                          ~~~~~~~~
                                                   |--3--|
   Q    Q    E  E    S  S      +E      S      +S   S  S  S  S  E.  +Q     S  S  S  S
|-----------------------------------|------------------------------------------13----|
|-13---13---13-15b18---15b18==(15)r-|-15pb18r(15)-13h15p13-15-15--(15)---13-15-------|
|-14---14---14----------------------|---------------------------------------------14-|
|-----------------------------------|------------------------------------------------|
|-----------------------------------|------------------------------------------------|
|-----------------------------------|------------------------------------------------|
 

   S  S  S  S  S  S  E  S  S  S  S  S  S  E
|--------------------------------------------|
|--------------------------------------------|
|-12-10-12p10----------10----12p10-----------|
|-------------12p10-12----12-------12p10-12--|
|--------------------------------------------|
|--------------------------------------------|

                                                                       ~~~~~~
                                                  |--3--|
   E  E      E      +E    E  E  E      +E      E  S  S  S  E  E  E  E  Q
|------------------------10----13b15==(13)r-|-13-10h13p10----10-10-------------|
|-13-13pb15-13b15==(13)r----13--------------|-------------13-------13-13pb15---|
|-------------------------------------------|----------------------------------|
|-------------------------------------------|----------------------------------|
|-------------------------------------------|----------------------------------|
|-------------------------------------------|----------------------------------|
 

   S  S  S  S     +S   S  S  S  S  S  E  S  S  S  S
|-10------------------------------------------------|
|----13-10------------------------------------------|
|----------12b14r(12)p10-12p10----------10----12p10-|
|------------------------------12p10-12----12-------|
|---------------------------------------------------|
|---------------------------------------------------|


   S  E.      E      +E    E      +E    E      +E
|---------------------------------------------------|
|---------------------------------------------------|
|----12b14---14b16==(14)r-12b14==(12)r-14b17==(14)r-|
|-12------------------------------------------------|
|---------------------------------------------------|
|---------------------------------------------------|


   E      +E    E      +E    E      +E    E      +E      E  Q       +E   E      +E    Q
|-----------------------------------------------------|--------------------------------------*|
|-----------------------------------------------------|----10b13r==(10)----------------------*|
|-12b14==(12)r-14b16==(14)r-12b14==(12)r-14b17==(14)r-|-14--------------12b14==(12)r-12b13---*|
|-----------------------------------------------------|--------------------------------------*|
|-----------------------------------------------------|--------------------------------------*|
|-----------------------------------------------------|--------------------------------------*|
comments
print report bad tab
3 comments total.
0 reply
claptonisgod21 wrote on April 13 2006, 10:42 pm

dude there is only one guitar in this song cos cream only ever had one guitarist? why tab parts for other guitars?

0 reply
Robnfguitarplay wrote on July 2 2006, 12:40 pm

There is such a thing as multi-tracking but I think you went a bit overboard on the different guitar parts. This is fine if your in a band that has three guitar players but most only have two.

0 reply
guitarman0478 wrote on September 7 2008, 11:49 am

yea in the album verision there is two guitars but if u listen to it live they don't play any of the wah parts in the verse's

I want to post or [tab]
guest
You may want to rate the tab now too:
select rating
Please do not post tabs as comments. Select "correction" instead!