Oops, an error
Loading. Please wait.

Are You Ready Bass Tab

2,625 views 1 this week
no commentswrite comment
1 2 3 4 5
excellent!
x 2
Autoscroll
+/-
esc
set tempo
stop
Contributor
WARNING: You are trying to view
                                    content from Ultimate-Guitar.com
                                    in an unauthorized application,
                                    which is prohibited.

                                    Please use an official Ultimate
                                    Guitar Tabs application for iPhone,
                                    iPad or Android to access legitimate
                                    chords, guitar, bass, and drum tabs
                                    from Ultimate-Guitar.com database.

                                    Type "ultimate guitar tabs" in Apple
                                    App Store's or Android Market's
                                    search to find the application.
Song     :Are You Ready (Bass)
Artist   :Creed
Tabbed By:Chirantan
E-Mail   :chirantan.pal@gmail.com

TUNING: D A D G

Intro(Guitar):     
G|---------|-------------------|
D|---------|-------------------|
A|---------|-------------------|
D|---------|-------------------|

Bass(Start):
|-------------------|---------------------------------|
|-------------------|---------------------------------|
|------------1----3-|-(3)-5-5-3-5-5-3-(3)-5-5-3-5--3--|
|-----1-1--1---3\---|---------------------------------|


|------------------------------|
|------------------------------|
|-(3)-5-5-3-5-5----------1---3-|
|---------------0-1-1--1---3---|


|-----------------------------------|-----------------------|
|-----------------------------------|-----------------------|
|-(3)-5-5-3-5-5-3-(3)-5-5-3-5-5-5-3-|-(3)-5-5-3-5-5s8s=13-3-|
|-----------------------------------|-----------------------|


1st Verse:
|---------------------------------|
|---------------------------------|
|-(3)-5-5-3-5--3-(3)-5----5b6-5-3-|
|-----------------------5---------|


|----------------------------|---------------------------------|
|----------------------------|---------------------------------|
|-(3)-5--3-5--5--------1---3-|-(3)-5-5-3-5--3-(3)-5----5b6-5-3-|
|---------------1-1--0---3---|-----------------------5---------|


|----------------------------|
|----------------------------|
|-(3)-5--3-5--5--------1---3-|
|---------------1-1--0---3---|


|-------------------------------|----------------------------|
|-------------------------------|----------------------------|
|-3-5-5-3-5--3-(3)-5----5b6-5-3-|-(3)-5--3-5--5--------1---3-|
|---------------------5---------|---------------1-1--0---3---|


|----------------------------------|
|----------------------------------|
|-(3)-5--3-5--3-3-5--0-5b6r(5)-5-3-|
|----------------------------------|

                              
|------------------------------|
|------------------------------|
|-(3)-5--------------------1---|
|-------5-4-3p0-3-0-1-1--1---3-|


Chorus:
|---------5---------------|
|-------------------------|
|-3-3-3-3---3-3-3-3-5-3---|
|-------------------------|


|---------------------------|
|---------------------------|
|-2-2-2-2-2-2-2-2s3-3-3h5---|
|-------------------------5-|


|-------------------------------|-----------------------|
|-------5s7-7-----------0-0-4s2-|-0------------4-2-0----|
|-------------7s9---2s4---------|-----3-5--5------------|
|-(5)-0-----------0-------------|---0--------0-------0--|


|---------------------------|-------------------------|
|---------------------------|-------------------------|
|-3-3-3-3-3-3-3---------0-3-|-2-2-2-2-2-2s3-3s5-------|
|---------------0-2-3-3-----|-------------------0-0-5-|


|-------------------------------|
|-------5s7-------------0-0-4-2-|
|-------------7s9---2s4---------|
|-(5)-0-----0-----0-------------|


|----------------------------||
|-0--------------4-2-0-0-----||
|-------3-5--5---------------||
|---0-0--------0---------3-2-||


|-------------------------------|----------------------------|
|-------------------------------|----------------------------|
|-3-5-5-3-5--3-(3)-5----5b6-5-3-|-(3)-5--3-5--5--------1---3-|
|---------------------5---------|---------------1-1--0---3---|


|---------------------------------|
|---------------------------------|
|-(3)-5-5-3-5--3-(3)-5----5b6-5-3-|
|-----------------------5---------|


|----------------------------|---------------------------------|
|----------------------------|---------------------------------|
|-(3)-5--3-5--5--------1---3-|-(3)-5-5-3-5--3-(3)-5----5b6-5-3-|
|---------------1-1--0---3---|-----------------------5---------|


|----------------------------|----------------------------------|
|----------------------------|----------------------------------|
|-(3)-5--3-5--5--------1---3-|-(3)-5--3-5--3-3-5--0-5b6r(5)-5-3-|
|---------------1-1--0---3---|----------------------------------|


|--------------------------------|
|--------------------------------|
|-(3)-5--------------------1-----|
|-------5-4-3p0-3-0-1-1--1---3---|


|---------------------------|---------------------------|
|---------------------------|---------------------------|
|-3-3-3-3-3-3-3---------0-3-|-2-2-2-2-2-2-2-2s3-3-3h5---|
|---------------0-2-3-3-----|-------------------------5-|


|---------------------------------|
|-------5s7-7-----------0-0-4s2---|
|-------------7s9---2s4-----------|
|-(5)-0-----------0---------------|


|----------------------|--------------------------------|
|-0------------4-2-0---|--------------------------------|
|-----3-5--5-----------|-3--3-3-3-3-3S15p14-14s15-15s17-|
|---0--------0-------0-|--------------------------------|


|-------------------------------|
|-------------------------------|
|-14-14-14-14-14-14-14----------|
|----------------------15S0-0-5-|
                                                        

|-----------------------------|------------------------|
|-------5s7-0-----------0-4-2-|-0------------0-4S2-0-0-|
|-------------7s9---2s4-------|-------2s3--3-----------|
|-(5)-0-----------0-----------|---0-0------------------|


Interlude:
|------|
|-0----|
|------|
|------|


|------------|-------------------------|----------------------------------||
|-(0)--------|-0-0-------------5-(5)-4-|----------------------------------||
|------------|-------------------------|-3-3-3-2-(2)-0-0-(0)--------------||
|------------|-----0-0-0-(0)-0---------|---------------------5-5-0-2s4-5--||


Bridge:
|--------------------------|
|-----0-0---------9-10-9-0-|
|--------------------------|
|-0-0-----0-(0)-0----------|


|------------------------------|-----------------------|
|------------------------------|----0-0-------9-10-9-0-|
|-3-3-3-2-(2)S0-0------------0-|-----------------------|
|------------------5-5-0-2h4---|-0------0-(0)----------|


|-----------------------------11------|
|--------0-(0)------9----9-10----10-9-|
|-9-10-9-------9-10---10--------------|
|-------------------------------------|


|----------------------|--------------------------------|
|----0-0-------5-5-5-4-|--------------------------------|
|----------------------|-3-3-3-2-(2)\-0-0---------------|
|-0------0-(0)---------|-------------------5-5-0-2h4-5--|


|-----------------------|------------------------------|
|----0-0-------9-10-9-0-|------------------------------|
|-----------------------|-3-3-3-2-2---0-0--------------|
|-0------0-0-0----------|-----------0------5-5-0-2h4-5-|


|-----------------------------|
|-----0-0---------9h10-9-0-0--|
|-----------------------------|
|-0-0-----0-(0)-0-------------|


|-----------------------------|-------------------------|
|-4h5p4-0-(0)-----------------|-----0-------------------|
|-------------3-3-3-2---------|-----------------5-5-5-4-|
|---------------------0-2h4-5-|-0-0---0-0-(0)-0---------|


|-----------------------------------|
|-----------------------------------|
|-3-3-3-2-(2)---0-0-(0)-------------|
|-------------0---------5-0-2h4-5-5-|


|-----------------------|-----------------------------11------|
|----0-0-------9-10-9-0-|--------0-(0)------9----9-10----10-9-|
|-----------------------|-9-10-9-------9-10---10--------------|
|-0------0-(0)----------|-------------------------------------|


|-------------------------|
|-----0-------------------|
|-----------------5-5-5-4-|
|-0-0---0-0-(0)-0---------|

                       
|-----------------------------------|
|-----------------------------------|
|-3-3-3-2-(2)---0-0-(0)-------------|
|-------------0---------5-0-2h4-5-5-|


|-------------------------|---------------------------|
|---------4-4-(4)-2--5\-0-|----------4-4-(4)-2--5\-0--|
|-3-5-(5)-----------------|-3--5-(5)------------------|
|-------------------------|---------------------------|


|------------------------|------------11-(11)-9-12--|
|---------4-4-(4)-2--5\--|-10-12-(12)---------------|
|-3-5-(5)----------------|--------------------------|
|------------------------|--------------------------|


Chorus:
||----------------------------|
||o---------------------------|
||o-3-3-3-3-3-3-3---------0-3-|
||----------------0-2-3-3-----|


|---------------------------|
|---------------------------|
|-2-2-2-2-2-2-2-2s3-3-3h5---|
|-------------------------5-|


|-------------------------------|------------------------||
|-------5s7-7-----------0-0-4s2-|-0------------4-2-0----o||
|-------------7s9---2s4---------|-----3-5--5------------o||
|-(5)-0-----------0-------------|---0--------0-------0---||


|---------------------------------|
|---------------------------------|
|-3-3-3-3-3-3-3-3-3-3-3/-15p14-14-|
|---------------------------------|


|-----------------------------------------|-------------------------------|
|-----------------------------------------|-------5-7-------------0---4s2-|
|-14-14-14-14-14-14-14-14-14s10-10\-------|-------------7s9---2s4---------|
|-----------------------------------0-0-5-|-(5)-0-----0-----0-------0-----|

                         
|-------------------------|
|-0------------4s2-0-0----|
|-----3-5--5------------0-|
|---0--------0------------|


Outro:
|-------------------------|
|---------4-4-(4)-2--5\-0-|
|-3-5-(5)-----------------|
|-------------------------|


|---------------------------|
|----------4-4-(4)-2--5\-0--|
|-3--5-(5)------------------|
|---------------------------|


|-------------------------|------------11-(11)-9-0--||
|---------4-4-(4)-2--5\-0-|-10-12-(12)--------------||
|-3-5-(5)-----------------|-------------------------||
|-------------------------|-------------------------||
comments
We did not receive enough feedback on this tab! Please rate:
1 2 3 4 5
I want to post or [tab]
guest
You may want to rate the tab now too:
select rating
Please do not post tabs as comments. Select "correction" instead!