Oops, an error
Loading. Please wait.

Bread Of Shame Tab

9,247 views 9 this week
4 commentsread comments
1 2 3 4 5
excellent!
x 4
Autoscroll
+/-
esc
set tempo
stop
Contributor
Difficulty
Tuning
intermediate
B E A D F# B
WARNING: You are trying to view
                                    content from Ultimate-Guitar.com
                                    in an unauthorized application,
                                    which is prohibited.

                                    Please use an official Ultimate
                                    Guitar Tabs application for iPhone,
                                    iPad or Android to access legitimate
                                    chords, guitar, bass, and drum tabs
                                    from Ultimate-Guitar.com database.

                                    Type "ultimate guitar tabs" in Apple
                                    App Store's or Android Market's
                                    search to find the application.
Creed - 'Bread of Shame'
From 'Full Circle' Album
Tuning: G# F# B E G# C#  <- Tune all down 3 frets, then tune lowest string to G#
Tabbed by jjhand, most of this song is on one guitar


This song has a similar tone to Staind, who has written most their songs tuned to 
Ab/G#, and it definitely adds some variety to Creed's latest album. Mark's tuning 
and playing style in this song reminds me of "The Damage Done" (similar tuning 2 frets higher).
 
Please Rate/Comment so I can put up the best tab. Thanks!


Intro

play 3x
|---------------------------------------------|   |--------------------------|
|---------------------------------------------|   |--------------------------|
|---------------------------------------------|   |--------------------------|
|---------------------------------------------|   |--------------------------|
|-----14-----15-----12---14---14-----15p14p12-|   |-----14-----15-----12-----|
|-0-0----0-0----0-0----0----0----0-0----------|   |-0-0----0-0----0-0----12~-|




Main Heavy Riff - play 2x, but extend the last bar's rhythms on 2nd time
|--------------------|---------------------|--------------------|-------------------|
|--------------------|---------------------|--------------------|-------------------|
|-----------------4~-|-----------------4/5-|-----------------4~-|-------------------|
|--------------------|---------------------|--------------------|-4---4---4-4-2---2-|
|-----------------2~-|-----------------2/3-|-----------------2~-|-5---5---5-5-3---3-|
|-1~--3~--5~--0------|-1~--3~--5~--0-------|-1~--3~--5~--0------|-------------------|



Verse 
|-----------------------------|-----------------------------|----------------------------|
|-----------------------------|-----------------------------|----------------------------|
|-----------------------------|-----------------------------|----------------------------|
|---------------------3-3-3---|-----------------------------|----------------------------|
|-2-2-2-----3-3-3-------------|---5-5-5-----2h3-2h5-2---2h3-|-2-2-2-----3-3-3------------|
|-------0---------0---------0-|---------0-------------0-----|-------0---------0---1-1-1--|

"If you say I'm alive I guess I'm living                    Why should I guess your size, "


   **swipe strings with hand
|-------------------------|-----------------------------|---------------------------|
|-------------------------|-----------------------------|---------------------------|
|-------------------------|-----------------------------|---------------------------|
|-----------**------------|---------------------3-3-3---|---------------------------|
|-----------x\--x\----x\--|-2-2-2-----3-3-3-------------|---5-5-5-----2h3-2h5-3p2-3-|
|-1~-0------x\--x\----x\--|-------0---------0---------0-|---------0-----------------|

"a choice I've been given   Tell me everything's fine and peace is coming"


End Verse with:
|---------------------------|-----------|
|---------------------------|-----------|
|---------------------------|-----------|
|---------------------------|-----------|
|-2-2-2-----3-3-3-----------|-----------|
|-------0---------0---1-1-1-|-1~-0------|
 "I won't listen to the heartache I'm numbing"




Louder Prechorus - play 2x, with lyrics shown

|----------------------------|-------------------------------|
|----------------------------|-------------------------------|
|-4-4-4-----5-5-5-----101010-|-----7-7-7---------------------| continue
|----------------------------|---------------PH--PH--PH-PH---| next line
|-2-2-2-----3-3-3-----8-8-8--|-----5-5-5-----2h3-2h5-2--2b3--|
|-------0---------0----------|-0---------0------------0------|

1. "When the world casts me down and says I've changed"
2. "Guess there's no one to blame When all you're living on is"



|---------------------------|------------------------|
|---------------------------|------------------------|
|-4-4-4-----5-5-5-----------|------------------------|
|---------------------------|------------------------|
|-2-2-2-----3-3-3-----------|------------------------|     2nd time, play first 2 
|-------0---------0---1-1-1-|-1~~-0---0---0---0---0--| <-- notes of this last bar only

1. "I'll survive on all the promises you made to me"
2. "bread of shame"





Chorus - Play 'Main Heavy Riff' with lyrics:

Lyrics:
 "Bread of Shame, When the world says I've changed
  Bread of shame, Just promise me fame I'll survive on the bread of shame"




Play Verse again

Verse 2 Lyrics:
  "As long as you say I'm free, Then keep these chains on me"
  "Tell me down is up, I'll let you fill this broken cup"
  "When the world fall down Let them fall on me"
  "Cause no one's around who believe me"


Play Louder Prechorus (same lyrics)


Play Chorus again (same lyrics)



Play Intro with different ending: 
play 3x
|---------------------------------------------|   |--------------------------|
|---------------------------------------------|   |--------------------------|
|---------------------------------------------|   |--------------------------|
|---------------------------------------------|   |--------------------------|
|-----14-----15-----12---14---14-----15p14p12-|   |-----14-----15-----12-12--|
|-0-0----0-0----0-0----0----0----0-0----------|   |-0-0----0-0----0-0--------|



Bridge (heavy part before final Chorus) - some squeals are added as this part repeats
|-------||---------------------------|------------------------------|
|-------||---------------------------|------------------------------|
|-------||---------------------------|------------------------------|
|-------||---------------------------|------------------------------|
|-------||---------2p0-2-3-2-0-2---5-|------------7-----------------|
|-15-13-||-~13-0-0-------------------|-3~--0--0-0---13~-0---0-6-0---|

        "Tell me where I sign my name" 


|---------------------------|--------------------------------|
|---------------------------|--------------------------------|
|---------------------------|--------------------------------|
|---------------------------|--------------------------------|  play both
|---------2p0-2~--2p0-2-2-5-|--------------7-----------------|  lines 2x
|-13~-0-0-------------------|-3PH~--0--0-0---13~-0---0-6-6-0-|

"Inside I find no peace of mind to hide behind, Only bread of shame"




Play Chorus again


Ending - W/ wah 

Play 3x                             Ending
|-------------------------|     |---------------------------|---------------------|
|-------------------------|     |---------------------------|---------------------|
|-------------------------|     |---------------------------|---------------------|
|-------------------------|     |---------------------------|---------------------|
|---------------------2---|     |---------------------------|---------------------|
|-1PH--3PH--5PH~--0-------|     |-1PH-3PH-5PH~-1PH-3PH-5PH~-|-1PH-3PH-5PH~--0-----|



key
| /   slide up
| \   slide down
| h   hammer-on
| p   pull-off
| ~   vibrato
| PH  pinch harmonic
| x   Mute note
comments
print report bad tab
4 comments total. Showing first comments.
+1 reply
Deadcell34 wrote on March 31 2010, 07:35 pm

This song sounds more like "Come To Life" by Alter Bridge than it does Staind. If you haven't heard that song, check it out. Alter Bridge is made up of Mark Tremonti, Brian Marshall, and Scott Phillips (3/4 of Creed) along with Myles Kennedy as the lead vocalist (MF4). Really awesome band, Alter Bridge and Creed are my two favorite bands.

Nice tab by the way, 5/5 from me.

0 reply
shady29 wrote on April 24 2010, 04:54 pm

an awesome tab, you've done a great job,
anyway it's really a bitch to retune a floyd rose to play this but i'll give it a try:D

0 reply
guitar4life97 wrote on August 16 2010, 09:26 pm

before the 2nd chorus (2:11) is goes...

 
C#|---------------------------|
G#|---------------------------|
E|---12-12-12-12-11----------|
B|---X--X--X--X--X-----------|
F#|---10-10-10-10-9-----------|
G#|---------------------------|
OTHER THAN THAT IT LOOKS GOOD...

I want to post or [tab]
guest
You may want to rate the tab now too:
select rating
Please do not post tabs as comments. Select "correction" instead!