Oops, an error
Loading. Please wait.

Bullets Tab

ver4
ver4

Whole song

More versions @911Tabs.com
2,399 views 3 this week
no commentswrite comment
1 2 3 4 5
excellent!
x 1
Autoscroll
+/-
esc
set tempo
stop
Contributor
WARNING: You are trying to view
                                    content from Ultimate-Guitar.com
                                    in an unauthorized application,
                                    which is prohibited.

                                    Please use an official Ultimate
                                    Guitar Tabs application for iPhone,
                                    iPad or Android to access legitimate
                                    chords, guitar, bass, and drum tabs
                                    from Ultimate-Guitar.com database.

                                    Type "ultimate guitar tabs" in Apple
                                    App Store's or Android Market's
                                    search to find the application.
Band- Creed
Song- Bullets
Album- Weathered
Tuning- Drop D

Intro-         Effects-Clean Tone Opt. Phraser



e---------------------------------------------------------------------------------------|
b---------------------------------------------------------------------------------------|
g---------------------------------------------------------------------------------------|
d---------------------------------------------------------------------------------------|
a----------------------------12-12-12-12-12-12-12-13-13-13-13-12-10-10-10-10------------|
d--0-0-0-0-0-0-0-0-0-0-0-0-0-0-0-0-0-0-0-0-0-0-0-0-0-0-0-0-0-0-0-0-0-0-0-0-0------------|

e---------------------------------------------------------------------------------------|
b---------------------------------------------------------------------------------------|
g---------------------------------------------------------------------------------------|
d---------------------------------------------14-14-14-14-14-14-14-14-14-14-------------|
a-10-10-10-10-10-12-/13-/12-12-12-12-12-12-12-12-12-12-12-12-12-12-13-13-14-------------|
d-0--0--0--0--0--0--0----0--0--0--0--0--0--0--0--0--0--0--0--0--0--0--0--0--------------|

e---------------------------------------------------------------------------------------|
b---------------------------------------------------------------------------------------|
g---------------------------------------------------------------------------------------|
d--14-14-15-15-15-15-15-15-15-15-12-12-12-12-12-12-12-12-12-12-12-12-12-----------------|
a--13-13-13-13-13-13-13-13-13-13-10-10-10-10-10-10-10-10-10-10-10-10-10-----------------|
d--0--0--0--0--0--0--0--0--0--0--0--0--0--0--0--0--0--0--0--0--0--0--0------------------|

e---------------------------------------------------------------------------------------|
b---------------------------------------------------------------------------------------|
g---------------------------------------------------------------------------------------|
d------12-/14-14-14-14-14-14-14-14-14-14-14-14-14-14-14-14-14-14-14-15-15-15------------|
a------10-/12-12-12-12-12-12-12-12-12-12-12-12-12-12-12-13-13-13-13-13-13-13------------|
d------0---0--0--0--0--0--0--0--0--0--0--0--0--0--0--0--0--0--0--0--0--0--0--0----------|

e---------------------------------------------------------------------------------------|
b---------------------------------------------------------------------------------------|
g-----------------12-12-12-12-12-12-12-12-12-12-12-12-12-12-12-12-/14--14---------------|
d--15-15-15-15-15-x--x--x--x--x--x--x--x--x--x--x--x--x--x--x--x--x--x--x---------------|
a--13-13-13-13-13-10-10-10-10-10-10-10-10-10-10-10-10-10-10-10-10-/12--12---------------|
d--0--0--0--0--0--0--0--0--0--0--0--0--0--0--0--0--0--0--0--0--0---0---0----------------|

e---------------------------------------------------------------------------------------|
b---------------------------------------------------------------------------------------|
g--14-14-14-14-/15-15-15----------------------------------------------------------------|
d---x--x---x--x--x---x---x---( Let Ring  For 2 Sec.)------------------------------------|
a--12-12-12-12-/13-13-13----------------------------------------------------------------|
d--0--0--0--0---0--0--0-----------------------------------------------------------------|

VERSE-    Effects- Rectifier or Heavy Distortion(Crank up the mid on your EQ) 
* Repeat-4 Times 


e---------------------------------------------------------------------------------------|
b---------------------------------------------------------------------------------------|
g---------------------------------------------------------------------------------------|
d---------------------------------------------------------------------------------------|
a----------------------15-------------------13------------------------------------------|
d-13-12-0-12-0-12-0-12-------12-0-12-0-12-------12-0-12-0-12--13-12-10-0-10-12-13-12----|

e----------------------|----------------------------------------------------------------|
b----------------------|----------------------------------------------------------------|
g----------------------|--------(Last Time )--------------------------------------------|
d----------------------|----------------------------------------------------------------|
a----------------------|---------------------15-------\13-- (Slide DownTo Fret 1 Then---| 
d----------------------|---------------------12-------\12---Pull off and Begin Chorus)--|


Chorus-     Effects- Same as Verse ( Use Wammy Bar )

e---------------------------------------------------------------------------------------|
b---------------------------------------------------------------------------------------|
g---------------------------------------------------------------------------------------|
d--0-1-0-1-0-1-0-------------------------0-1-0-1-0-1-0-0-0--0-1-0-1-0-1-0-w<->----------|
a--0-1-0-1-0-1-0---(Ring 2 Sec.)---------0-1-0-1-0-1-0-0-0--0-1-0-1-0-1-0-w<->----------|
d--0-1-1-1-0-1-0-------------------------0-1-0-1-0-1-0-0-0--0-1-0-1-0-1-0-w<->----------|

e---------------------------------------------------------------------------------------|
b---------------------------------------------------------------------------------------|
g---------------------------------------------------------------------------------------|
d--0-1-0-1-0-1-0--1------0-1-0-1-0-1-0--0-1-0-1-0-1-0-0-0--0-1-0-1-0-1-0-w<->-----------|
a--0-1-0-1-0-1-0----3----0-1-0-1-0-1-0--0-1-0-1-0-1-0-0-0--0-1-0-1-0-1-0-w<->-----------|
d--0-1-0-1-0-1-0---------0-1-0-1-0-1-0--0-1-0-1-0-1-0-0-0--0-1-0-1-0-1-0-w<->-----------|

Verse-
Chorus-



 Bridge-  Effects- Same As Chorus , Clean Opt. Phraser

e---------------------------------------------------------------------------------------|
b---------------------------------------------------------------------------------------|
g---------------------------------------------------------------------------------------|
d---------------------------------------------------------------------------------------|
a-13-12-0-10-12--13-12-0-10-12--13-12-0-10-12-13-12-000-w<->----------------------------|
d-13-12-0-10-12--13-12-0-10-12--13-12-0-10-12-13-12-000-w<->----------------------------|

e---------------------------------------------------------------------------------------|
b---------------------------------------------------------------------------------------|
g---------------------------------------------------------------------------------------|
d---------------------------------------------------------------------------------------|
a-13-12-0-10-12--13-12-0-10-12--13-12-0-10-12-13-12-000-w<--->--------------------------|
d-13-12-0-10-12--13-12-0-10-12--13-12-0-10-12-13-12-000-w<--->--------------------------|

e---------------------------------------------------------------------------------------|
b---------------------------------------------------------------------------------------|
g---------------------------------------------------------------------------------------|
d---------------------------------------------------------------------------------------|
a-13-12-0-10-12--13-12-0-10-12--13-12-0-10-12-13-12-000-w<------------------------------|
d-13-12-0-10-12--13-12-0-10-12--13-12-0-10-12-13-12-000-w<--------------6-------2---0>--|


e---------------------------------------------------------------------------------------|
b---------------------------------------------------------------------------------------|
g---------------------------------------------------------------------------------------|
d---------------------------------------------------------------------------------------|                 
a------------------(Switch To Clean)----------------------------------------------------|
d---------------------------------------------------------------------------------------|


e---------------------------------------------------------------------------------------|
b---------------------------------------------------------------------------------------|
g---------------------------------------------------------------------------------------|
d---------------------------------------------------------------------------------------|
a-----------------------------12-12-12-12-12-12-12-13-13-13-13-12-10-10-10-10-----------|
d-----------------------------0-0-0-0-0-0-0-0-0-0-0-0-0-0-0-0-0-0-0-0-0-0-0-0-0---------|

e---------------------------------------------------------------------------------------|
b---------------------------------------------------------------------------------------|
g---------------------------------------------------------------------------------------|
d----------------------------------------14-14-14-14-14-14-14-14-14-14-14---------------|
a--10-10-10-10-10-12-/13-/12-12-12-12-12-12-12-12-12-12-12-12-12-12-13-13---------------|
d--0---0---0---0--0---0--0---0--0--0--0--0--0--0--0--0--0--0--0--0--0--0----------------|



e---------------------------------------------------------------------------------------|
b---------------------------------------------------------------------------------------|
g---------------------------------------------------------------------------------------|
d--14-14-15-15-15-15-15-15-15-15-12-12-12-12-12-12-12-12-12-12-12-12-12-----------------|
a--13-13-13-13-13-13-13-13-13-13-10-10-10-10-10-10-10-10-10-10-10-10-10-----------------|
d--0--0--0--0--0--0--0--0--0--0--0--0--0--0--0--0--0--0--0--0--0--0--0------------------|

e---------------------------------------------------------------------------------------|
b---------------------------------------------------------------------------------------|
g---------------------------------------------------------------------------------------|
d------------------------------------------------14-14-14-14-14-14-15-15-15-15----------|
a--12-12-12-12-12-12--(Switch To  Distortion)----12-12-12-12-13-13-13-13-13-13----------|
d--0--0--0--0--0--0------------------------------0--0--0--0--0--0--0--0--0--0-----------|


e---------------------------------------------------------------------------------------|
b---------------------------------------------------------------------------------------|
g--12-12-12-12-12-12-12-14-14-14-14-14-14-14-14-15-15-15-15-17-17-17-17-----------------|
d--x-x-x-x-x-x-x-x-x-x-x-x-x-x-x-x-x-x-x-x-x-x-x-x-x-x-x-x-x-x-x-x-x-x------------------|
a--10-10-10-10-10-10-10-12-12-12-12-12-12-12-12-13-13-13-13-15-15-15-15-----------------|
d--0--0--0--0--0--0--0--0--0--0--0--0--0--0--0--0--0--0--0--0--0--0--0------------------|

-Chorus

-Outro-    Effects same as chorus

e---------------------------------------------------------------------------------------|
b---------------------------------------------------------------------------------------|
g---------------------------------------------------------------------------------------|
d---------------------------------------------------------------------------------------|
a-13-12-0-10-12--13-12-0-10-12--13-12-0-10-12-13-12-000---w<->--------------------------|
d-13-12-0-10-12--13-12-0-10-12--13-12-0-10-12-13-12-000---w<->--------------------------|

e---------------------------------------------------------------------------------------|
b---------------------------------------------------------------------------------------|
g---------------------------------------------------------------------------------------|
d---------------------------------------------------------------------------------------|
a-13-12-0-10-12--13-12-0-10-12--13-12-0-10-12-13-12-000-w<---->-------------------------|
d-13-12-0-10-12--13-12-0-10-12--13-12-0-10-12-13-12-000-w<---->-------------------------|

e---------------------------------------------------------------------------------------|
b---------------------------------------------------------------------------------------|
g---------------------------------------------------------------------------------------|
d---------------------------------------------------------------------------------------|
a-13-12-0-10-12--13-12-0-10-12--13-12-0-10-12-13-12-000-w<------------------------------|
d-13-12-0-10-12--13-12-0-10-12--13-12-0-10-12-13-12-000-w<------------------------------|

ENJOY!!!!!!!!!
comments
We did not receive enough feedback on this tab! Please rate:
print report bad tab
1 2 3 4 5
I want to post or [tab]
guest
You may want to rate the tab now too:
select rating
Please do not post tabs as comments. Select "correction" instead!