Oops, an error
Loading. Please wait.

Greatest Hits Tab

45,724 views 36 this week
5 commentsread comments
1 2 3 4 5
excellent!
x 13
add to favorites launch autoscroll
font size
0
reset
Autoscroll
+/-
esc
set tempo
stop
Contributor
WARNING: You are trying to view
                                    content from Ultimate-Guitar.com
                                    in an unauthorized application,
                                    which is prohibited.

                                    Please use an official Ultimate
                                    Guitar Tabs application for iPhone,
                                    iPad or Android to access legitimate
                                    chords, guitar, bass, and drum tabs
                                    from Ultimate-Guitar.com database.

                                    Type "ultimate guitar tabs" in Apple
                                    App Store's or Android Market's
                                    search to find the application.
Band- Creed
Album- Greatest Hits

I just got this album and the DVD ROCKS!!!Too bad Creed broke up, they were a great band.
Track Listings:
1.Torn
2.My Own Prison
3.What's This Life For
4.One
5.Are You Ready?
6.Higher
7.With Arms Wide Open
8.What If
9.One Last Breath
10.Don't Stop Dancing
11.Bullets
12.My Sacrifice
13.Weathered

1.TORN

This is on Drop D tuning.


Intro - 3x                         4th time
--------------------------0--------|----------------------------------|
------------6----------------6-----|-------------6-6--6-6--6\8-8-8-8--|
----7p5-----------7p5-----------5--|-----7p5-----5-5--5-5--5\7-7-7-7--|
-0-------0-----0-------0-----------|--0-------0--0-0--0-0------0-0-0--|
-----------------------------------|----------------------------------|
-----------------------------------|----------------------------------|


Verse - 3x                          4th time
---------------------------0--------|---------------------------------|
------------6-6---------------6-----|-------------6--6-6--6/8--8-8-8--|
----7p5-----5-5-----7p5----------5--|-----7p5-----5--5-5--5/7--7-7-7--|
-0-------0-------0-------0----------|--0-------0--0--0-0-------0-0-0--|
------------------------------------|---------------------------------|
------------------------------------|---------------------------------|


Play the verse 2 times.


Pre-Chorus - 2x
----------------------------------------------------------------|
----------------------------------------------------------------|
-5--5--5-5-5-5--5-5-----5--5-5--5-----------5-------------------|
-3--3--3-3-3-3--5-5--0--5--5-5--5--0-0-0-0--3--0-0-0--3p0--0-0--|
-3--3--3-3-3-3--3-3--0--3--3-3--3--0-0-0-0--3--0-0-0--3p0--0-0--|
-3--3--3-3-3-3--3-3--0-------------0-0-0-0--3--0-0-0--3p0--0-0--|

------------------------------------------------|
------------------------------------------------|
------------------------------------------------|
--------------0-0-0--3p0--0-0-------------------|
-3-4-5-0-3-4--0-0-0--3p0--0-0--3-4-5-0-5-4-3-0--|
--------------0-0-0--3p0--0-0-------------------|


Chorus -
------------------------------------------------------------------|
------------------------------------------------------------------|
-5--5-5-5--x--5-5-5-5-----7--7-7-7--x--7-7--7--7-7-----10--10-10--|
-3--3-3-3--x--5-5-5-5--0--5--5-5-5--x--7-7--7--7-7--0---8---8--8--|
-3--3-3-3--x--3-3-3-3--0--5--5-5-5--x--5-5--5--5-5--0---8---8--8--|
-3--3-3-3--------------0--5--5-5-5------------------0---8---8--8--|

----------------------------------------------|
----------------------------------------------|
-10--10--x--10--10-10-10-10-----9--9-9--9-----|
--8---8--x--10--10-10-10-10-----7--7-7--7-----|
--8---8--x---8---8--8--8--8--0--7--7-7--7--0--|
--8---8----------------------0--7--7-7--7--0--|


--------------------|
--------------------|
--------------------|
-7\5----------------|
------7-5\3---------|
-------------3--5b--|


Play the verse

Then the pre chorus

Then the chorus


Interlude - (palm muted)
---------------------------------------------------------------------|
---------------------------------------------------------------------|
---------------------------------------------------------------------|
---------------------------------------------------------------------|
----------------------------6-6-------6-6-----------------4-5-4------|
-0-0--10-10--9-9--0-0--6-7-------0-0-------7-7--0-0--4-5--------5-0--|

End with this the 1st time -
--------------------------------------------------------------------|
--------------------------------------------------------------------|
--------------------------------------------------------------------|
----------3-3-3--------------3-3-3-3-0-----------2-2-2--------------|
--------------------------------------------------------------------|
-3-3-3-3---------3--3-3-3-3-------------2-2-2-2---------2--2-2-2-2--|

            End interlude with this the 2nd time (Riff I) -
------------|-------------------------------------------------|
------------|-------------------------------------------------|
------------|--5--5-5-5----------------4--4-4-4---------------|
-2-2-2-2-0--|--3--3-3-3----------------2--2-2-2---------------|
------------|--3--3-3-3--3-3--0--3--5--2--2-2-2--2-2--0--2-3--|
------------|--3--3-3-3--3-3--0--3--5--2--2-2-2--2-2--0--2-3--|

Then this 3x -
----------------------------------------------------------|
----------------------------------------------------------|
--------------------8-------8-----------------7--7--7-----|
--------------------8-------8--------------6--7--0--5-----|
-0--10--9--0--6--7--6--0-0--6--7--0--4--5--4--5--0--5--0--|
-0--10--9--0--6--7-----0-0-----7--0--4--5--------0--5--0--|

Then the verse 2x

Then this two times (clean, strum soft)
------------------------------------------|
------------------------------------------|
-5---5--/7---7---10---10---9---7---7------|
-3---5---5---7----8----8---7---0---5---0--|
-3---3---5---5----8----8---7---0---5---0--|
-3-------5--------8--------7---0---5---0--|

Outro - (Repeat and fade to black!)
----------------------------0-----------0---------|
------------6-------------------6-----------6-----|
----7p5------------7p5-------------5-----------5--|
-0-------0------0--------0------------0-----------|
--------------------------------------------------|
--------------------------------------------------|

2.MY OWN PRISON

Drop D tuning.

Intro -
----------------------------------------------------------------------|
-------------3--------------------------------------------------------|
------2------2---------------0-------------5---5----------------------|
------0------0---------0h3------3----------3---3---3------------------|
------0------0----0h1--------------0---3---3---3---3---3h5--3---------|
-0----0--------------------------------3---3--------------------5--3--|


Chorus -
------------------------------------|-----------------------------------|
---------------------------------3--|--3--3----5---5-----6--6--6--6--6--|
-5---------4----------3----------2--|--2--2----4---4-----5--5--5--5--5--|
-3---------2----------1----------0--|--0--0----0---0-----0--0--0--0--0--|
-3---------2----------1----------0--|-----------------------------------|
-3---------2----------1----------0--|-----------------------------------|


Distorted Verse -
-----------------------------------------------------------------------------|
---------3-----3--3-3--------------------------------------------------------|
---------2-----2--2-2-------------------5----5----5--------------------------|
---------0-----0--0-0---3----3----------3----3----3----3------------------0--|
-0-------0-----0--0-0---1----1----0--0--3----3----3----3---3h5--3------------|
-0-------0-----0--0-0-------------------3----3----3----------------5--3------|


Solo -
-------------------------------------------------------------------------------------|
-------------------------------------------------------------------------------------|
-------------------------------------------------------------------------------------|
------------------------15----15-----------------------------15-----15---------------|
-12v~~~~~~----0--12h13------------13�12v~~~~~~-----0--12h13-------------13----|
-------------------------------------------------------------------------------------|

---------------------------------------------------------------------------|
---------------------------------------------------------------------------|
---------------------------------------------------------------------------|
-------------------------------15-----15------15----------15-----------15--|
-12v~~~~~~~~~--------0--12h13-------------13--------12----------12h13------|
---------------------------------------------------------------------------|

---------|
---------|
---------|
-15------|
-----13--|
---------|

Last Strum -
----------------|
----------------|
----------------|
-------0~~~~----|
-------0~~~~----|
-------0~~~~----|

3.WHAT'S THIS LIFE FOR

Standard Tuning (EADGBE)
h - hammer-on
p - pull-off

VERSE
  G    D         Dsus4   Bsus2      Csus2
e-3----------2-2h3p2-----------2--2-------3-------|
b-3-3-3----3---------3---------2--2---------3-----|
g-0-0----2-------------0-----4----------5-----5---|5x
d-0-0--0-------------------4----------5-----------|
a-2-2--------------------2----------3-----------0-|
e-3-3---------------------------------------------|

  G        D         Dsus4
e-----3----------2-2h3p2-2-----|
b-----3--3-----3-----------3---|
g-----0------2---------------0-|
d----0-----0-------------------|
a---2--------------------------|
e-3----------------------------|

  B5/E        Cmaj7/E
e-----------------------------|
b-0--0--0-0-0-0--0-0--0-0-0-0-|
g-4--4--4-4-4-5--5-5--5-5-5-5-|
d-4--4--4-4-4-5--5-5--5-5-5-5-|
a-2--2--2-2-2-3--3-3--3-3-3-3-|
e-0--0--0-0-0-0--0-0--0-0-0-0-|

CHORUS
  G5           D5        B5           C5
e-----------------------------------------------|
b-----------------------------------------------|
g--------------7--7--7---4--4--4-4--4-5--5--5---|3x
d-5--5--5-5--5-7--7--7---4--4--4-4--4-5--5--5---|
a-5--5--5-5--5-5--5--5-0-2--2--2-2--2-3--3--3-0-|
e-3--3--3-3--3----------------------------------|

  G5           D5        B5           C5
e-----------------------------------------------|
b-----------------------------------------------|
g--------------7--7--7---4--4--4-4--4-5---------|
d-5--5--5-5--5-7--7--7---4--4--4-4--4-5---------|
a-5--5--5-5--5-5--5--5-0-2--2--2-2--2-3---------|
e-3--3--3-3--3----------------------------------|

INTERLUDE
  G
e-3--3--3---3--3-3-3--3--3--3---3--3-3---|
b-3--3--3---3--3-3-3--3--3--3---3--3-3---|
g-0--0--0---0--0-0-0--0--0--0---0--0-0-0-|
d-0--0--0-X-0--0-0-0--0--0--0-X-0--0-0-0-|
a-2--2--2-X-2--2-2-2--2--2--2-X-2--2-2-0-|
e-3--3--3-X-3--3-3-3--3--3--3-X-3--3-3---|

  C        Cmaj7          Am       Asus2
e-0--0-0---0--0-0---0---0-0--0-0---0--0-0---0---0-|
b-1--1-1---0--0-0---1p0-0-1--1-1---0--0-0---1p0-0-|
g-0--0-0-0-0--0-0-0-0---0-2--2-2-2-2--2-2-2-2---2-|
d-2--2-2-2-2--2-2-2-2---2-2--2-2-2-2--2-2-2-2---2-|
a-3--3-3-3-3--3-3-3-3---3-0--0-0-0-0--0-0-0-0---0-|
e-------------------------------------------------|

  D/A      Dsus4          C        Cmaj7
e-2--2-2---3--3-3-2-2-2-2-0--0-0---0--0-0---0---0-|
b-3--3-3---3--3-3-3-3-3-3-1--1-1---0--0-0---1p0-0-|
g-2--2-2-2-2--2-2-2-2-2-2-0--0-0-0-0--0-0-0-0---0-|
d-0--0-0-0-0--0-0-0-0-0-0-2--2-2-2-2--2-2-2-2---2-|
a-0--0-0-0----0---0-0-0-0-3--3-3-3-3--3-3-3-3---3-|
e-------------------------------------------------|

  G
e-3--3-3--3----3--3-3-3-3-3----3--3--3-3----3-3-3-|
b-3--3-3--3----3--3-3-3-3-3----3--3--3-3----3-3-3-|
g-0--0-0--0--0-0--0-0-0-0-0--0-0--0--0-0--0-0-0-0-|
d-0--0-0--0--0-0--0-0-0-0-0--0-0--0--0-0--0-0-0-0-|
a-2--2-2--2--2-2--2-2-2-2-2--2-2--2--2-2--2-2-2-2-|
e-3--3-3--3--3-3--3-3-3-3-3--3-3--3--3-3--3-3-3-3-|

4.ONE

e------------------------------------------------------------|
B------------------------------------------------------------|
G------------------------------------------------------------|
D--------------------11--11-11-11--9--11/14(b)/--9--9-9-9-9--|
A-**7-7-7-6-6-6h7p0---0---0--0--0--0---0---------7--7-7-7-7--|
E---9-9-9-9-9-9---0-----------------------------(0)(0-0-0-0)-|
(** slight palm mute)


                                      First
e-------------------------------------Time---|
B-------------------------------------Only---|
G-------------------------------------|------|
D--9-9-9-9--00-----------------------'.'-----|
A--7-7-7-7--00--9--9-9-9-9--9-9-9-9/(14)-----|
E-(0-0-0-0)-----7--7-7-7-7--7-7-7-7/(12)-----|

  II
e---------------------------------------------------|
B---------------------------------------------------|
G---------------------------------------------------|
D---------------------11--11-11-11-9--11--11-11-11--|
A-**7-7-7-6-6-6h7p0----0---0--0--0-0---0---0--0--0--|
E---9-9-9-9-9-9-------------------------------------|

                                                     |  I      |
e----------------------------------------------------|---------|
B----------------------------------------------------|---------|
G----------------------------------------------------|-(sings)-|
D--9--9-9-9-9---9-9-9-9--00--------------------------|-(first)-|
A--7--7-7-7-7---7-7-7-7--00--9--9-9-9-9--9-9-9-9-00--|-(verse)-|
E-(0)(0-0-0-0)-(0-0-0-0)-----7--7-7-7-7--7-7-7-7-00--|---------|

  II  |  III
e-----|---------------------------------------------------------|
B-----|---------------------------------------------------------|
G-----|---------------------------------------------------------|
D-----|--------------------11--11-11-11--9--11--9--9--9-9-9-9---|
A-----|-**7-7-7-6-6-6h7p0---0---0--0--0--0---0--0--7--7-7-7-7---|
E-----|---9-9-9-9-9-9-----------------------------(0)(0-0-0-0)--|

e----------------------------------------|
B----------------------------------------|
G----------------------------------------|
D---9-9-9-9--00--------------------------|
A---7-7-7-7--00--9--9-9-9-9--9-9-9-9-00--|
E--(0-0-0-0)-----7--7-7-7-7--7-7-7-7-00--|

  IV
e------------------------------------------------------------|
B------------------------------------------------------------|
G------------------------------------------------------------|
D--------------------11--11-11-11--9-11-11-11-9--9--9-9-9-9--|
A-**7-7-7-6-6-6h7p0---0---0--0--0--0--0--0--0-0--7--7-7-7-7--|
E---9-9-9-9-9-9---------------------------------(0)(0-0-0-0)-|

e----------------------------------------|
B----------------------------------------|
G----------------------------------------|
D---9-9-9-9--00--------------------------|
A---7-7-7-7--00--9--9-9-9-9--9-9-9-9-00--|
E--(0-0-0-0)-----7--7-7-7-7--7-7-7-7-00--|

  V  (One- oh one...)
e---------------------------------------------------------|
B---------------------------------------------------------|
G---------------------------------------------------------|
D--------------------11--11-11-11--9--11--11-11-11/14(b)--|
A-**7-7-7-6-6-6h7p0---0---0--0--0--0---0---0--0--0--------|
E---9-9-9-9-9-9-------------------------------------------|


                                                     |  II  |
e----------------------------------------------------|------|
B----------------------------------------------------|------|
G----------------------------------------------------|------|
D--9--9-9-9-9---9-9-9-9--00--------------------------|------|
A--7--7-7-7-7---7-7-7-7--00--9--9-9-9-9--9-9-9-9-00--|------|
E-(0)(0-0-0-0)-(0-0-0-0)-----7--7-7-7-7--7-7-7-7-00--|------|


 Chorus  2x

e--------------------------|
B--------------------------|
G--4-----x-----6-----x-----|
D--4-----4-----6-----6-----|
A--2-----4-----4-----6-----|
E--x-----2-----x-----4-----|


  I   |  II     |  I   |  II  |  III  |  I        |  II  |
e-----|---------|------|------|-------|-----------|------|
B-----|---------|------|------|-------|--(GTR 1)--|------|
G-----|-(sings)-|------|------|-------|--(Cont.)--|------|
D-----|--(2nd)--|------|------|-------|-----------|------|
A-----|-(verse)-|------|------|-------|-----------|------|
E-----|---------|------|------|-------|-----------|------|


 Repeat Chorus (4x)


(3:01 sec.)
 Bridge 2x
e--------2~ ---0-------------4~ ---------------|
B--------2~ -----0-----------4~ ---------------|
G------4-----------3/ -----6-----------6----5--|
D----4-------------------6-----------6---------|
A--2-------------------4-----------6------6----|
E------------2-------------------4-------------|


e---------------------------------------------------------------

B-------4-------(4)-------4------5--------4------5--------------|
G---------4-------(4)-------4------4--------4------4--(7)/9-----|
D-**444-------------**444------4----**444------4-------x--x-----|
A-----------------------------------------------------(5)/7-----|
E---------------------------------------------------------------|
(**slight palm mute)


e------------------------------------------------------------|
B-------4-------(4)-------4------5--------4------5-----------|
G---------4-------(4)-------4------4--------4------4---9-----|
D-**444-------------**444------4----**444------4-------x-----|
A------------------------------------------------------7-----|
E------------------------------------------------------------|


           | 6x  (fade out)
e----------|----------------------------------------------------|
B----------|----------------------------------------------------|
G--Chorus--|--4------------------------6------------------------|
D----2x----|--4------------------------6------------------------|
A----------|--2---------4-----4---4----4---------6-----6---6----|
E----------|--x-----222---222---2---2--x-----444---444---4---4--|



 GUITAR 2   (distortion)

 (2:01-2:02)   | (2:06-2:09---------------------------------------|       (One- Oh one...)
e----softly----|--------------------------------------------------|
B--------------|--------------------------------------------------|
G------**------|----**---------------6~ --x-------**--------------|
D----666666----|--9999999---**-------6~ --7~ ---9999999---**------|
A----444444----|--7777777-9999999----4~ --7~ ---7777777-9999999---|
E--------------|----------7777777---------5~ -----------7777777---|

  (One- Oh one...)            (2:24) ^ = Harmonic
e------------------------------------------------------------|
B------------------------5^5^5^--9^--7^7^--6^--7^7^7^-7^-7^--|
G---6~ --x-------**------------------------------------------|
D---6~ --7~ ---9999999---------------------------------------|
A---4~ --7~ ---7777777---------------------------------------|
E--------5~ -------------------------------------------------|

           | Pick Slides @
e----------|(2:46-2:48, 2:50-2:52)---|
B----------|(2:55-2:56, & 2:59-3:00)-|
G--Chorus--|-------------------------|
D----2x----|-------------------------|
A----------|--x-\--------------------|
E----------|--x--\-------------------|
                  \

 (start at 3:01)  2x
e-----------------------------------|
B-----------------------------------|
G---4~ -----x-------6~ -----x-------|
D---4~ -----4~ -----6~ -----6~ -----|
A---2~ -----4~ -----4~ -----6~ -----|
E---x-------2~ -----x-------4~ -----|

 (start at 3:19)                       |
e---------------------------|----------|
B---------------------------|----------|
G---x-----x-----x-----9-----|--Chorus--|
D---9-----9-----7-----9-----|----2x----|
A---9-----9-----7-----7-----|----------|
E---7-----6-----5-----x-----|----------|



 6x (fade out)
e----------------------------------------------------|
B----------------------------------------------------|
G--4------------------------6------------------------|
D--4------------------------6------------------------|
A--2---------4-----4---4----4---------6-----6---6----|
E--x-----222---222---2---2--x-----444---444---4---4--|

5.ARE YOU READY?

Tabbed for Drop-D Tuning
Intro: (Clean)


E-|------------------------------------------------------------------|
B-|------------------------------------------------------------------|
G-|---------------------------------------------------2--------------|
D-|-----------------------------------------------------0------------|
A-|--3--5-5-3-5-5--3-5-5-5b-5-5--3-5-5-3-5-5-3---0--------1-1b3-1-3--|
D-|--0--0-0-0-0-0--0-0-0-0--0-0--0-0-0-0-0-0-0-0---0--------------0--|

Play this twice:
E-|--------------------------------------------------------|
B-|--------------------------------------------------------|
G-|--------------------------------------------------3-----|
D-|-----------------------------------------------1--3--3--|
A-|--3--5-5-3-5-5--3-5-5-5b-5-5--3-5-5-3-5-5-3----1--1--3--|
D-|--0--0-0-0-0-0--0-0-0-0--0-0--0-0-0-0-0-0-0-0--1-----3--|

Play this once:
E-|--------------------------------------------|
B-|--------------------------------------------|
G-|--------------------------------------------|
D-|--------------------------------------------|
A-|--3--5-5-3-5-5--3-5-5-5b-5-5--3-5-5-3-5-5b--|
D-|--0--0-0-0-0-0--0-0-0-0--0-0--0-0-0-0-0-0---|
End Intro

Verse: (Played Lower with Distortion)
Part 1:Play three times
E-|--------------------------------------------------------|
B-|--------------------------------------------------------|
G-|--------------------------------------------------3-----|
D-|-----------------------------------------------1--3--3--|
A-|--3--5-5-3-5-5--3-5-5-5b-5-5--3-5-5-3-5-5-3----1--1--3--|
D-|--0--0-0-0-0-0--0-0-0-0--0-0--0-0-0-0-0-0-0-0--1-----3--|

Part 2
E-|------------------------------------------------------------------|
B-|------------------------------------------------------------------|
G-|---------------------------------------------------2--------------|
D-|-----------------------------------------------------0------------|
A-|--3--5-5-3-5-5--3-5-5-5b-5-5--3-5-5-3-5-5-3---0--------1-1/3-1-3--|
D-|--0--0-0-0-0-0--0-0-0-0--0-0--0-0-0-0-0-0-0-0---0--------------0--|
End of Verse

Chorus:Play twice (Distortion)
E-|---------------------------------------------------------|
B-|--1--1--------------------------------------3------------|
G-|--0--0----------0h2--------------------------------------|
D-|--2--0--3---0-------0-2-3-2-------0--3-2-0-----0--3-2-0--|
A-|--3--2--3---0----------------2-3-------------------------|
D-|--------3---0--------------------------------------------|
End Chorus

Repeat Verse: Part 1 four times and then Chorus twice

1st Bridge:Play 6 times (Clean)
E-|-----5-3-2--------------------------------3------|
B-|--3----------0-1-0-------------------------------|
G-|--2--------2-------2--------2-----4---4-5---5-4--|
D-|--0------------------4-5-4----4-5---5------------|
A-|--0----------------------------------------------|
D-|-------------------------------------------------|

Play twice: (Distortion)
E-|-----5-3-2--------------------------------3------|
B-|--3----------0-1-0-------------------------------|
G-|--2--------2-------2--------2-----4---4-5---5-4--|
D-|--0------------------4-5-4----4-5---5------------|
A-|--0----------------------------------------------|
D-|-------------------------------------------------|

Play twice:
E-|-----5-3-2--------------------------------3--|
B-|--3----------0-1-0---------------------------|
G-|--2--------2-------2--------2-----4---4-5----|
D-|--0------------------4-5-4----4-5---5--------|
A-|--0------------------------------------------|
D-|---------------------------------------------|
End 1st Bridge

2nd Bridge:Play 4 times (Distortion)
E-|-------------------|
B-|-------------------|
G-|--5--7--11--9--12--|
D-|-------------------|
A-|--3--5---9--7--10--|
D-|-------------------|
End 2nd Bridge

6.HIGHER

 (rhy. fig. 1)
--------------------------------------------------------------------------------------|
--------------------------------------------------------------------------------------|
------------7----7--9------9--9/11-----11--9--11-11/12---9--9----9----9--11----11--11-|
----0--0----0----0--0------0--0--0------0--0---0--0--0---0--0----7----7---7-----7---7-|
----0--0----0----0--0------0--0--0------0--0---0--0--0---0--0----7----7---7-----7---7-|
----0--0----0----0--0------0--0--0------0--0---0--0--0---0--0----7----7---7-----7---7-|

-------------------------------------------------------------------------------------|
-------------------------------------------------------------------------------------|
--9/7--9----9--11----9---7--------7-----7---9-------9---7-----7---7-----7---7-----0--|
-------7----7---7----7---0--------5-----5---5-------5---5-----5---5-----5---5-----0--|
-------7----7---7----7---0--------5-----5---5-------5---5-----5---5-----5---5-----0--|
-------7----7---7----7---0--------5-----5---5-------5---5-----5---5-----5---5-----0--|
                                                        (end rhy. fig. 1)(rhy. fig 2)
--------------------------------------------------------------------------------------|
--------------------------------------------------------------------------------------|
-0----12--11----11------11--9--11-----11---9----7-------7----7------7-----7---9-----9-|
-0-----0---0-----0-------0--0---0------0---0----0-------0----0------0-----0---0-----0-|
-0-----0---0-----0-------0--0---0------0---0----0-------0----0------0-----0---0-----0-|
-0-----0---0-----0-------0--0---0------0---0----0-------0----0------0-----0---0-----0-|

-------------------------------------------------------------------------------------|
-------------------------------------------------------------------------------------|
---9/11------11---9---11-11/12-----9--9-----9-----9---11-----11--11--9--7--9-----9---|
---0----------0---0----0--0--0-----0--0-----7-----7----7------7---7--------7-----7---|
---0----------0---0----0--0--0-----0--0-----7-----7----7------7---7--------7-----7---|
---0----------0---0----0--0--0-----0--0-----7-----7----7------7---7--------7-----7---|

-------------------------------------------------------------------------------------|
-------------------------------------------------------------------------------------|
-11-----9-----7---------7-----7---9-------9---7-----7----7-------7---7-----0----0----|
-7------7-----0---------5-----5---5-------5---5-----5----5-------5---5-----0----0----|
-7------7-----0---------5-----5---5-------5---5-----5----5-------5---5-----0----0----|
-7------7-----0---------5-----5---5-------5---5-----5----5-------5---5-----0----0----|
                                               (end rhy. fig. 2)(rhy. fig 3)
----------------------------------------------------------------------5-------------0-|
----------------------------------------------------------------------3-------------3-|
--12--11------11--------11--9--11-------11-------9---7----------------2-------------2-|
---0---0-------0---------0--0---0--------0-------0---0----------------0-------------0-|
---0---0-------0---------0--0---0--------0-------0---0----------------0-------------0-|
---0---0-------0---------0--0---0--------0-------0---0----------------0-------------0-|
                                                        1. When    dream - in'_______
                                                        2. Al  -  though   I_________
---0----x----x------------------------------0--------------0-----0---0---0---0-------|
---3----x----x------------------------------0--------------0-----0---0---0---0-------|
---2----x----x---------------0--------------7--------------7-----7---7---7---7-------|
---0----x----x-----------0---0--------------7--------------7-----7---7---7---7-------|
---0----x----x---4-/-5---0-------4-/-5------5--------------5-----5---5---5---5-------|
---0----x----x---0---------------4-/-5------5--------------5-----5---5---5---5-------|
   I   got       in - to______   an - oth    -    er   world___    time   and  time__
 would like      a    world___   of   change__                 it  helps  me   to____

--0---0---------5-----------0--------0----x----x-------------------------------------|
--0---0---------3-----------3--------3----x----x-------------------------------------|
--7---7---------2-----------2--------2----x----x----------------------0-----------7--|
--7---7---------0-----------0--------0----x----x----------------0-----0-----------7--|
--5---5---------0-----------0--------0----x----x-----4-/-5------0---------4-/-5---5--|
--5---5---------0-----------0--------0----x----x-----0--------------------4-/-5---5--|
          ag -  gain.________________________________________________________________
          ap - pre - ci - ate      those    nights     and   those______  dreams.____
                                 (end rhy. fig. 3)
--0--------0----0----0-----0----------0----0-----------------------------------------|
--0--------0----0----0-----0----------0----0-----------------------------------------|
--7--------7----7----7-----7----------7----7------guitar 1 w/ rhy. fig 3, 2 times----|
--7--------7----7----7-----7----------7----7-----------------------------------------|
--5--------5----5----5-----5----------5----5-----------------------------------------|
--5--------5----5----5-----5----------5----5-----------------------------------------|
___                                        At    sun - rise________   I fight  to
___                                         But, my    friend,_____  I'd sac - ri -

stay___  a - sleep_______________      'cause  I  don't  wan-na  leave  the
fice___      all_____those nights___     if    I       could make__     the

 com   -  fort     of______ this__________ place.______         'cause there's  a
earth and my       dreams___________  the       same.__                      the

hun - ger_____      long - in'  to____   es - cape_______________  from the life   I
 on - ly______       dif    -   f'rence__     is_________________        to  let love

 live___      when  I'm    a     -    wake._______________________________)>  so lets
               re - place___         all____ our_____       hate._________)>
(rhy. fig. 4)
-------------------------------------------------------------------------------------|
---------------------------------------------------------------------8---8---8---8---|
----7---7---7---7---7---7---7---7---7---7---7---7---7---7---7---7----7---7---7---7---|
----4---4---4---4---4---4---4---4---4---4---4---4---4---4---4---4----5---5---5---5---|
----4---4---4---4---4---4---4---4---4---4---4---4---4---4---4---4----5---5---5---5---|
----4---4---4---4---4---4---4---4---4---4---4---4---4---4---4---4----5---5---5---5---|
    go      there,_______                                 let's    make     our
--------------------------------------------------------------------------------------|
8---8---8---8---8---8---8---8---8---8---8---8-----------------------------------------|
7---7---7---7---7---7---7---7---7---7---7---7---7---7---7---7---7---7---7---7---7---7-|
5---5---5---5---5---5---5---5---5---5---5---5---4---4---4---4---4---4---4---4---4---4-|
5---5---5---5---5---5---5---5---5---5---5---5---4---4---4---4---4---4---4---4---4---4-|
5---5---5---5---5---5---5---5---5---5---5---5---4---4---4---4---4---4---4---4---4---4-|
es  -  cape.______    Come on,___     let's     go      there,_____
                                                                  (end rhy. fig. 4)
-------------------------------------------------------------------------------------|
---------------------------8---8---8---8---8---8---8-/-20--20-----20--20--20--20\----|
---7---7---7---7---7---7---7---7---7---7---7---7---7-/-19--19-----19--19--19--19\----|
---4---4---4---4---4---4---5---5---5---5---5---5---5-/-17--17-----17--17--17--17\----|
---4---4---4---4---4---4---5---5---5---5---5---5---5-/-17--17-----17--17--17--17\----|
---4---4---4---4---4---4---5---5---5---5---5---5---5-/-17--17-----17--17--17--17\----|
                  let's   ask,    can     we       stay?___
--------------------------------------------------------------------------------------|
--------------------------------------------------------------------------------------|
---------------------------------------------------7-------7------------------------6-|
-------7-------7--7---7-------7--7--7--7-----0-----5-------x-------0-------0--0--0----|
-------5-------5--5---4-------4--4--4--5--4--0-----5-------5-------0-------0--0--0----|
---------------------------------------------------5-------4-------0-------0--0--0----|
          can   you   take__      me_____   high   -   er,
-------------------------------------------------------------------------------------|
-------------------------------------------------------------------------------------|
--7--9--7--6--7--------------------------------------------7-----------7-------------|
----------------------0--0----7-------7--7--7--7-----0-----5-----------x-----------0-|
----------------------0--0----4-------4--4--4--5--4--0-----5-----------5-----------0-|
----------------------0--0---------------------------------5-----------4-----------0-|
                to      a     place_    where__   blind______      men_________   see
-------------------------------------------------------------------------------------|
-------------------------------------------------------------------------------------|
-------------------------------------------------------------------------------------|
----------0----0----0----4-^--R--0----7----------7----7------7-----------7----7----7-|
----------0----0----0-----------------5----------5----5------4-----------4----4----4-|
----------0----0----0----------------------------------------------------------------|
?___________________                       Can       you     take____        me______
-------------------------------------------------------------------------------------|
-------------------------------------------------------------------------------------|
-------------------7----------7------------------------------------6----7----9----7--|
---7---------0-----5----------x----------0----------0----0----0----------------------|
---5----4----0-----5----------5----------0----------0----0----0----------------------|
-------------------5----------4----------0----------0----0----0----------------------|
           high    -     er,
-------------------------------------------------------------------------------------|
-------------------------------------------------------------------------------------|
---6----7---------------------------------------------------------------------4------|
-------------------0----0------7----------7----7----7----7---------0----------5------|
-------------------0----0------4----------4----4----4----5----4----0----------5------|
-------------------0----0-----------------------------------------------------5------|
                to      a      place___        with_____           gold       -    en
-------------------------------------------------------------------------------------|
--------------------------------------First time through go to the second------------|
----7----------7----------------------verse but the second time through--------------|
----x----------x----0-----------------continue on.-----------------------------------|
----5----------5----0----------------------------------------------------------------|
----4----------4----0----------------------------------------------------------------|
________            streets?__________
-------------------------------------------------------------------------------------|
-------------------------------------------------------------------------------------|
-------------------------------------------------------------------------------------|
-0----0----0----0----------0----0----------------------------------------------------|
-0----0----0----0----------0----0-----guitar 1 w/ rhy. fig 4-------------------------|
-0----0----0----0----------0----0----------------------------------------------------|
                      So  let's    go  there,____            yeah, let's    go

there.___     Come on,___    let's    go    there,__                   let's   ask

"Can    we    stay?"____
--------------------------------------------------------------------------------------|
-3----------3-------3-------3----3----3-------10----------10------10--10----10--------|
-2----------2-------2-------2----2----2--------9-----------9-------9---9-----9--------|
-0----------0-------0-------0----0----0--------7-----------7-------7---7-----7--------|
-0----------0-------0-------0----0----0--------7-----------7-------7---7-----7--------|
-0----------0-------0-------0----0----0--------0-----------0-------0---0-----0----0-0-|
       Old        high,___  I         feel_________  like____    I'm_____    a - live
-----8----------8-------8-------8--8----8----8---------------------------------------|
-----7----------7-------7-------7--7----7----7---------------------------------------|
-----5----------5-------5-------5--5----5----5--0----0----0--5--0----0---0--5--0--0--|
-----5----------5-------5-------5--5----5----5--0----0----0--5--0----0---0--5--0--0--|
-----5----------5-------5-------5--5----5----5--0----0----0--5--0----0---0--5--0--0--|
_______   for____   the____             very_____  first___   time._______
--------------------------------------------------------------------------------------|
----3-------3-------3------3----3----3----10-------10-------10-----10--10----10-------|
----2-------2-------2------2----2----2-----9--------9--------9------9---9-----9-------|
----0-------0-------0------0----0----0-----7--------7--------7------7---7-----7-------|
----0-------0-------0------0----0----0-----7--------7--------7------7---7-----7-------|
----0-------0-------0------0----0----0-----7--------7--------7------7---7-----7--0--0-|
      Sit   up   high,___  I'm       strong__  e    -     nough__             to take
-------------------------------------------------------------------------------------|
---------8----------8----------8--------8---8-----8-----8----------------------------|
---------7----------7----------7--------7---7-----7-----7--------12-11-----------12--|
---------5----------5----------5--------5---5-----5-----5----0----x--x------0--0--x--|
---------5----------5----------5--------5---5-----5-----5----0---10--9------0--0-10--|
---------5----------5----------5--------5---5-----5-----5----0--------------0--0-----|
_____       these___       dreams___             and    make___  them____   mine____
-------------------------------------------------------------------------------------|
-------------------------------------------------------------------------------------|
11---11\7----------------------------------------------------------------------------|
-x------x------------(guitar 1  w/ rhy. fig. 1, 1 3/4 times)-------------------------|
-9----9\5----------------------------------------------------------------------------|
-------------------------------------------------------------------------------------|

Sit up high,__ I'm       strong__ e   -   nough__   to   take____  these__  dreams__

and  make__ them__ mine.__
    (final verse)
-------------------------------------------------------------------------------------|
-------------------------------------------------------------------------------------|
----------------------------------------------7-------7------------------------6--7--|
--7-------7--7----7-------7--7--7--7-----0----5-------x-------0-------0--0--0--------|
--5-------5--5----4-------4--4--4--5--4--0----5-------5-------0-------0--0--0--------|
----------------------------------------------5-------4-------0-------0--0--0--------|
     Can  you     take__     me____   high    -    er,
-------------------------------------------------------------------------------------|
-------------------------------------------------------------------------------------|
9--7--6--7-------------------------------------------7-------7-----------------------|
-----------------0--0----7-------7--7--7--7-----0----5-------x-------0-------0--0--0-|
-----------------0--0----4-------4--4--4--5--4--0----5-------5-------0-------0--0--0-|
-----------------0--0--------------------------------5-------5-------0-------0--0--0-|
            to      a    place______   where    blind___   men___    see?_________
-------------------------------------------------------------------------------------|
-------------------------------------------------------------------------------------|
6--7--9--7--6--7---------------------------------------------7-------7---------------|
-----------------------0--0---7-------7--7--7--7-----0-------5-------x-------0-------|
-----------------------0--0---4-------4--4--4--5--4--0-------5-------5-------0-------|
-----------------------0--0----------------------------------5-------5-------0-------|
                 Can    you   take__________   me    high    -    er,
-------------------------------------------------------------------------------------|
-------------------------------------------------------------------------------------|
---------6--7--9--7--6--7-------------------------------------------7-------7--------|
0--0--0-------------------------0--0----7-------7--7--7--7-----0----5-------x--------|
0--0--0-------------------------0--0----4-------4--4--4--5--4--0----5-------5--------|
0--0--0-------------------------0--0--------------------------------5-------5--------|
                           to      a    place_______     with  gold   -  en
-------------------------------------------------------------------------------------|
-------------------------------------------------------------------------------------|
-------------------------------------------------------------------------------------|
0------------------------------------------------------------------------------------|
0------------------------------------------------------------------------------------|
0------------------------------------------------------------------------------------|
streets?_________  (repeat final verse once with a lighter voice and lighter

strumming then fade out)

7.WITH ARMS WIDE OPEN

intro and verse  (mark tremonti fingerpicks this)  (clean with wah and chorus effect)
   Fig.1
   |---------------------------------------------------------------------------------|
   |---0h1-------------1-----------1h3-------0h1h0----0h1--------------3-----1-------|
   |---------0--------------0-------------------------------0----------0---------0---|
   |-------------0---------------------------------------------0---------------------|
   |---3------------3------------3--------3-----------2------------2-------2---------|
   |---------------------------------------------------------------------------------|


   |---------------------------------------------------------------------------------|
   |--0h1------------1-----------0h1h0-----------0---------0h1-----------1---------0-|
   |--------0------------0---------------0----------0------------0-----------0-------|
   |----------0----------------------------0------------------------0----------------|
   |--0---------0-------------0--------------0---------0---0----------0---------0----|
   |---------------------------------------------------------------------------------|

   |-------------------------------|
   |-------------0-----------------|
   |--0--------------0-------------|
   |-----0-------------------------|
   |--------0-------------0--------|
   |-------------------------------|
   1st chorus:clean: strum kinda lightly
 ..open
   |------------------------3--3-3-3-3--3-3-3-3------------------------------5-5-5-5-|
   |-6-6--6--6-6-6-6--------3--3-3-3-3--3-3-3-3--5--5--5-5-5-5--5-5-5--5--5--5-5-5-5-|
   |-5-5--5--5-5-5-5--x-5---5--5-5-5-5--5-5-5-5--4--4--4-4-4-4--4-4-4--4--4--7-7-7-7-|
   |-3-3--3--3-3-3-3--x-5---5--5-5-5-5--5-5-5-5--2--2--2-2-2-2--2-2-2--2--2--7-7-7-7-|
   |-3-3--3--3-3-3-3--x-----3--3-3-3-3--3-3-3-3--2--2--2-2-2-2--2-2-2--2--2--5-5-5-5-|
   |-3-3--3--3-3-3-3--------------------------------2--2--2-2-2-2--2-2-2--2--2-------|
   open
   |----------------------------------------------------------------------------------|
   |---0h1-------------1-----------1h3-------0h1h0----0h1--------------3----==-1------|
   |---------0--------------0----------------------------------0----------0---------0-|
   |-------------0-------------------------------------------------0------------------|
   |---3------------3------------3--------3-----------2---------------2-------2-------|
   |----------------------------------------------------------------------------------|


   |----------------------------------------------------------------------------------|
   |--0h1------------1-----------0h1h0-----------0---------0h1-----------1---------0--|h
   |--------0------------0----------------0----------0----------0-----------0---------|
   |----------0------------------------------0---------------------0------------------|
   |--0--------0-------------0-----------------0---------0-0----------0---------0-----|
   |----------------------------------------------------------------------------------|

   |------------------------------|
   |-------------0----------------|
   |--0--------------0------------|
   |-----0------------------------|
   |--------0-------------0-------|
   |------------------------------|
   2nd verse

   |-0-----------------0------------------0--------------3------3------0-------------|
   |-1-----------------3------------------1--------------1------1------1-------------|
   |-0-----------------0------------------0--------------0-------------0-------------|
   |-0-----------------0------------------0--------------2---------------------------|
   |-3-----------------2------------------0------------------------------------------|
   |---------------------------------------------------------------------------------|

   |-0----------0-0-0--0----------0--0-0---0-----------0--------3------------------------|
   |-1----------1-1-1--3----------3--3-3---1-----------1--------1------------------------|
   |-0----------0-0-1--0----------0--0-0---0-----------0--------0------------------------|
   |-0----------0-0-0--0----------0--0-0---2-----------2--------2------------------------|
   |-3----------3-3-3--2----------2--2-2---0-----------0--------0--------------12\\\\----|
   |---------------------------------------------------------------------------12-12-----|
   2nd chorus(played with distortion)
   |-------------------------------------------------------------------------------------|
   |-6--6-6--6-6-6-6-6--6----------------------------------------------------------------|
   |-5--5-5--5-5-5-5-5--5--0-0-0--5---5--5-5-5-5------4----4--4--4-4-4--4-4--------------|
   |-3--3-3--3-3-3-3-3--3--0-0-0--5---5--3-5-5-5-3----2----2--2--2-2-2--2-2--2\\\\-------|
   |-3--3-3--3-3-3-3-3--3---------3---3--3-3-3-3-3----2----2--2--2-2-2--2-2--2\\\\-------|
   |-3--3-3--3-3-3-3-3--3------------------------3----2----2--2--2-2-2--2-2--------------|


   |----------------------------------------------------------------------------------|
   |----------------------------------------------------------------------------------|
   |-7------7----7-7-7---7-5-5---------------------------------0--5--5--5-5-5-5--5----|
   |-7------7----7-7-7---7-5-5----3--------3---3-3-3-3---3-3-3-0--5--5--5-5-5-5--5--3-|
   |-5------5----5-5-5---5-3-3-0--3--------3---3-3-3-3---3-3-3----3--3--3-3-3-3--3--3-|
   |- -------------------------0--3--------3---3-3-3-3---3-3-3----------------------3-|




   |------------------------------------------------------------------------------|
   |-------5--5-5-5--5------------------------------------------------------------|
   |-------4--4-4-4--4-----------7----------------------(7)-----------------------|
   |-2-----2--2-2-2--2---2-2\\\\----5----------------------(7)--------------------|
   |-2-----2--2-2-2--2---2-2\\\\----5----------------------(5)--------------------|
   |-2-----2--2-2-2--2------------------------------------------------------------|

  Play fig.1  two times
 ---
   Guitar solo: distortion with wah  full bend
   |---------------------------------------------------------------------------------|
   |--------5--6~~-5--6--(5)~~~~~-----5--6-(6)--5------6~~~~-------5--6^(6)--6----5--|
   |--5--7-----------------------5--7------------------------5--6--------------------|
   |---------------------------------------------------------------------------------|
   |---------------------------------------------------------------------------------|
   |---------------------------------------------------------------------------------|
                                 full bend
   |----------------------------------------------------------------------------------|
   |--6--5~~~-6--5~~~ 6--5~(5)--6--8^-(8)----(8)-----5--6---5--6-(5)~~~------5--6-----|(6)
   |---------------------------------------------5--7-------------------5--7----------|
   |----------------------------------------------------------------------------------|
   |----------------------------------------------------------------------------------|
   |----------------------------------------------------------------------------------|

full bend                                       full bend
   |----------------------------------------------------------------------------------|
   |--6--(5)~~~~~~~~------5--6^-(6)--6-----5-----6--5~~~-6--5~~~-6--5~(5)--6--8^-(8)--|
   |-----------------5--7-------------------------------------------------------------|
   |----------------------------------------------------------------------------------|
   |----------------------------------------------------------------------------------|
   |----------------------------------------------------------------------------------|
   Go through the solo twice      e |-------------------------------------------------|
   2nd chorus(1x)                   |-1-----------------------------------------------|
   Fig.1 (2x)           end on      |-0-----------------------------------------------|
                                    |-3-----------------------------------------------|
                                    |-3-----------------------------------------------|
                                    |-------------------------------------------------|

8.WHAT IF

This is on Drop D tuning . . .


Intro (play with fingers)
------------------5-----------3-----------1---------------------1--|
----------5----6------6----5------5----3-----3--------------3------|
------7------------------------------------------1-------1---------|
-/7------------0---------------------------------------------------|
---------------------------0-----------1-------------1-------------|
-------------------------------------------------------------------|

----0-------------------0------0-----------------------------5-----|
-3-----3-------------3------2-----2------------------5---6------6--|
----------0-------0------------------0-----------7-----------------|
--------------------------------------------/7-----------0---------|
-0------------0-------------0------------0-------------------------|
-------------------------------------------------------------------|

--------3----------1-------------------1------0--------------------|
-----5-----5----3-----3-------------3------3-----3-------------3---|
-------------------------1-------1------------------0------0-------|
-------------------------------------------------------------------|
-0---0----------1------------1-------------0------------0----------|
-------------------------------------------------------------------|

-0-------0-------------------0-------------------------------------|
------2-----2-------------2-------3----3----3---2h3-----5p3p2p0h2--|
---------------0-------0-------------------------------------------|
-------------------------------------------------------------------|
------0------------0--------------1----1----0-----------0----------|
-------------------------------------------------------------------|

Play with pick (in at 0:31)
-------------------------------------------------------------------|
-------------------------------------------------------------------|
-------------------------------------------------------------------|
-0--0--0-----------------------0--------0----0----0--0--0----------|
-0--0--0---------0---3h5---0---1--------1----1----0--0--0-------0--|
-0--0--0---3h5---0---------0---0---0----2----2----0--0--0--3h5--0--|


-------------------------------------------------------------------|
-------------------------------------------------------------------|
----------0--------------------------------------------------------|
----------0-------2---2------0--0--0------------------0---0--0--0--|
-3h5--0---1-------1---1------0--0--0--------0---3h5---0---1--1--1--|
------0-------0--------------0--0--0---3h5--0---------0---0--2--2--|

---------------------------|-------------|
---------------------------|-------------|
---------------------------|-------------|
-0---0--0------------------|-------2.7^--|^ = harmonic between 2nd and 3rd frets
-0---0--0---------0---3h5--|-------2.7^--|
-0---0--0---3h5---0--------|---0---2.7^--|


Verse (0:44)
--------------------------------------|-------------------------------------|
--------------------------------------|-------------------------------------|
--------------------------------------|-------------------------------------|
--------------------------------------|--0----------------------------------|
--------------------3h5-----1---------|--0-----------------3h5-----1--------|
-0---0--0---0h3--0-------0------0--2--|--0--0--0--3h5--0--------0-----0--2--|

--------------------------------------|---------------------------------------|
--------------------------------------|---------------------------------------|
--------------------------------------|---------------------------------------|
-0------------------------------------|--0------------------------------------|
-0------------------3h5-----1---------|--0-----------------3h5-----1----------|
-0---0--0---3h5--0-------0------0--2--|--0--0--0--3h5--0--------0-----0--2.7^-|


Chorus (1:10)
----------------------------------------------------|
----------------------------------------------------|
-3---3---3-------3---------5---5--5---------3-------|
-3---3---3-----------------5---5--5-----------------|
-1---1---1-------1---------3---3--3---------1-------|
-------------0--------2----------------0---------2--|

------------------------------------------------------------|
------------------------------------------------------------|
-----5/7----7--7-----3--------/14---14--14--------3-----/7--|(1:18)
-0----------------------------------------------------------|
-0---3/5----5--5-----1--------/12---12--12--------1-----/5--|
-0------------------------2-----------------0--0------------|

(What if I avenge . . . , 1:24)
----------------------------------------------------|
----------------------------------------------------|
-3---3---3-------3---------5---5--5---------3-------|
-3---3---3-----------------5---5--5-----------------|
-1---1---1-------1---------3---3--3---------1-------|
-------------0--------2----------------0---------2--|


(1:30)
---------------------------------------------------|
---------------------------------------------------|
-----5/7----7--7-----3--------/14---14--14---------|
-0-------------------------------------------------|
-0---3/5----5--5-----1--------/14---12--12---------|
-0------------------------2------------------2.7^--|

Verse: 1:36

Right before chorus
---------------------|
---------------------|(1:59)
---------------------|This is a pick scrap on the album, but Mark
---------------------|plays it with the slide with a slight bend
---------------------|when he plays it live.
---3/12b*~~----------|


Chorus: (2:02)


Interlude (has wah pedal as filter, 2:28)
------------------------------------------------------|
------------------------------------------------------|When the guitar comes
------------------------------------------------------|back in after the bass
------------------------------------------------------|solo Mark palm mutes
----5--6-----9--8-----5-----9--8------3---5----8---6--|the riff
-0--------0--------0-----0--------0-------------------|

-------------------------|
-------------------------|
-------------------------|
-------------------------|
----5--6-----9--8-----5--|
-0--------0--------0-----|

*************************
-------------------------|
-------------------------|
--------7-------------8--|* = played with wah pedal
-----6-------------7-----|
-------------------------|
-0-----------0--0--------|


Bridge  (What if!  What if! What if! 3:26)
-----------------------------------------------|
-----------------------------------------------|
-----------------------------------------------|
-0--0---0---4---0---0---0--1---0--3--0---4--3--|
-0--0---0---4---0---0---0--1---0--3--0---4--3--|
-0--0---0---4---0---0---0--1---0--3--0---4--3--|

-----------------------------------------|
-----------------------------------------|
-----------------------------------------|
-0--0---0---4---0---0---0--1---0-----8b--|
-0--0---0---4---0---0---0--1---0-----7b--|
-0--0---0---4---0---0---0--1---0---------|

Chorus: 3:52

Bridge: 4:30

9.ONE LAST BREATH

Intro (Fingerpicked)
Play it 3 times :
               D                    quite fast
-2-----5-----0h2---------------------------------|
------------------3--------2-3-3h5---5p3p2-3-----|
---------------------2---------------------------|
-0--0-----0--------------------------------------|
------------------------0----------0---------0---|
-------------------------------------------------|

 Bm                     G           D
------------------------------------------3--2--|
-------3-----2h3--------------------3-----------|
-4----------------4-----------0--------2--------|
--------------------4------0-----0--------------|
-2--2-----2-------------------------------------|
------------------------3-----------------------|

                                A(don't pluck the first "4")
-2-----3-----2--0h2p0-----------------------------------------|
-----------------------3--------------2�2h3p2----------|
-----------------------------------2---------h4----0----------|
-0--0-----0---------------------2----------------4------------|
--------------------------4--0--------------------------------|
--------------------------------------------------------------|

 B                        G
--------------2-----------------------3--------|
-----------2-----2-----------------------3-----| whole thing
-------4------------4--------------0--------0--|     3 X
----4------------------0--------0-------------0|
-2---------------------------2-----------------|
--------------------------3--------------------|

Chorus:
Play these chords twice: (let it sound softly)
    D    F#   Bm   G
e|--2---(0)---0---(0)----|
b|--3----0----3----0-----|
g|--2----3----4----3-----|    2 X
d|--0----4----4----5-----|
a|-------4----2----5-----|
e|-------2---------3-----|

Play Intro 3 times.

The second time the chorus is distorted,
play this three times:
   D    F#   B    G                        B   G
e|--------------------|            e|------------------|
b|--------------------|            b|------------------|
g|-7---------4--------|  4 X  end with:    g|-4--------|  3 X
d|-7----4----4----5---|            d|-4---5------------|
a|-5----4----2----5---|            a|-2---5------------|
e|------2---------3---|            e|-----3------------|


Then Bridge:
   Em    G     D     D     A     Bm    G     G
|--0--|--3--|--2--|--2--|--0--|--2--|--3--|--3--|
|--0--|--0--|--3--|--3--|--2--|--3--|--0--|--0--|
|--0--|--0--|--2--|--2--|--2--|--4--|--0--|--0--|   2X
|--2--|--0--|--0--|--0--|--2--|--4--|--0--|--0--|
|--2--|--2--|-----|-----|--0--|--2--|--2--|--2--|
|--0--|--3--|-----|-----|-----|-----|--3--|--3--|


Soft Chorus:
    D    F#   Bm   G                        D    F#   B    G
e|--2---(0)---0---(0)----|             e|-----------------------------|
b|--3----0----3----0-----|            b|------------------------------|
g|--2----3----4----3-----|  2X then distorted g|-7---------4----------|  4 X
d|--0----4----4----5-----|            d|-7----4----4----5-------------|
a|-------4----2----5-----|            a|-5----4----2----5-------------|
e|-------2---------3-----|            e|------2---------3-------------|

Outro:
                                         quite hard to figure out
e|-2---5---0h2----------------------------------------------------------3~~~~----------|
b|-------------3------2�3--3h5--5p3s2-3--------3---2h3----------------3---(3)---|
g|---------------2-------------------------4-----------4------------0------------------|
d|-0-0---0-----------------------------------------------0------0----------------------|
a|-----------------0----------0----------0-2-2---2------------2---2--------------------|
e|----------------------------------------------------------3--------------------------|

10.DON'T STOP DANCING

Verse - (listen to the song for strumming pattern)
"At times life is wicked and I just can't see the light"
-3--------------------------3------------------0--0-----0-0--|
-3--------------------------3------------------1--0-----1-0--|
-0--------------------------0------------------0--0-----0-0--|
-0--------------------------0------------------2--2-----2-2--|
-2--------------------------0------------------3--3-----3-3--|
-3--------------------------2--------------------------------|


Pre-Chorus - (listen for strumming pattern)
"But I know I must go on . . . I heard I must be strong"
-0--------------------------------0--------------------|
-1--------------------------------1--------------------|
-2--------------------------------0--------------------|
-2--------------------------------2--------------------|
-0--------------------------------3--------------------|
----------------------------------0--------------------|

Then kick in the distortion for this passage -

"Cause inside I know that many feel this way~~~~~~ . . ."
---------------------------------------------------------|
---------------------------------------------------------|
---------------------------------------------5-5-5---/7--|
-------2-~~~~~~~~~~~~~~~~~~~~~~~~~~~---------5-5-5---/7--|
-------2-~~~~~~~~~~~~~~~~~~~~~~~~~~~---------3-3-3---/5--|
-------0-~~~~~~~~~~~~~~~~~~~~~~~~~~~---------------------|


Chorus - (strum chords)
"Children don't stop dancing" "Believe you can fly~~~~ away; away"
------------------------------|-----------------------------------|
------------------------------|-----------------------------------|
---------7--------------------|----5---------------------------5--|
-5-------7------7-------7-----|----5-----------5------/7-------5--|
-5-------5------7-------7-----|----3-----------5------/7-------3--|
-3--------------5-------5-----|----------------3------/5----------|

Play the verse (with some picking)

Then Pre-Chorus

Then the Chorus

Solo - (in at 1:58)
-/12-/14-/15---/17--17----19b-19b--|
-----------------------------------|
-----------------------------------|
-----------------------------------|
-----------------------------------|
-----------------------------------|

Play the next bar 3x -
-10---------------------10----------------10---12b--|
----------10--12---10---------10-12-10--------------|
----------------------------------------------------|
----------------------------------------------------|
----------------------------------------------------|
----------------------------------------------------|

The 4th time play these next two bars -
-12p10----------------------------|
----------10-----------(10)---12--|
----------------12v---------------|
----------------------------------|
----------------------------------|
----------------------------------|

-----------------------------------12b~--|
-10b-------------------------------16b~--|
--------12v---11v---11bp9----------------|
-----------------------------12v---------|
-----------------------------------------|
-----------------------------------------|


Bridge -
"Are we hiding ~~~~ in the shadows?"
----------------|-----------------|
----------------|-----------------|
-7--------------|-----5-----------| Strum the chords
-7--------7-----|-----5--------5--|
-5--------7-----|-----3--------5--|
----------5-----|--------------3--|


Pre-Chorus - (just guitar, strum all chords softly)
"But I know I must go on . . . I heard I must be strong"
-0--------------------------------0--------------------|
-1--------------------------------1--------------------|
-2--------------------------------0--------------------|
-2--------------------------------2--------------------|
-0--------------------------------3--------------------|
----------------------------------0--------------------|

"Cause inside I know that many feel this way~~~~~~ . . ."
-------------------------------------------------------|
-------------------------------------------0-------(0)-|
-------------------------------------------5-------(7)-|
-------2------------2--------2-------------5-------(7)-|
-------2------------2--------2-------------3-------(5)-|
-------0------------0--------0-------------------------|


Clean Chorus - (strum softly)
"Children don't stop dancing" "Believe you can fly . . ."
-3------2------0-------0--|------------------------0--|
-3------3------2-------2--|------------------------2--|
-0------2------2-------2--|------0---------0-------2--|
-0------0------2-------2--|------2---------0-------2--|
-2-------------0-------0--|------3---------2-------0--|
-3------------------------|----------------3----------|

Kick in distortion - "Away~~~"
---------------------|
---------------------|
5-5-5-5-5-5-5-5---5--| All palm muted
5-5-5-5-5-5-5-5---5--|
3-3-3-3-3-3-3-3---3--|
---------------------|

Then go into regular chorus

Outro -
"Am I hiding ~~~~ in the shadows?"
----------------|-----------------|
-0--------------|-----0-----------|
-7--------0-----|-----5--------0--| Strum the chords
-7--------7-----|-----5--------5--|
-5--------7-----|-----3--------5--|
----------5-----|--------------3--|

11.BULLETS

Intro - Just how Mark Plays it on SNL.
Verse - Sounds right, cause it is!
Chorus - Whammy bar bends and palm muting
Post Chorus - Rapid fire baby!
Bridge - The same as intro riffs


Intro - (Mark uses the wah wah as a filter)
--------------------------------------------------|
--------------------------------------------------|
--------------------------------------------------|
--------------------------------------------------|
--------------------------------------------------|
-0-0-0-0-0-0-0-0-0-0-0-0-0-0-0-0-0-0-0-0-0-0-0-0--|

--------------------------------------------------|
--------------------------------------------------|
--------------------------------------------------|
--------------------------------------------------|
--------------------------------------------------|
-0-0-0-0-0-0-0-0-0-0-0-0-0-0-0-0-0-0-0-0-0-0-0-0--|

Then this - (play 2x)
-------------------------------------------------------|
-------------------------------------------------------|
-------------------------------------------------------|
-------------------------------------------------------|
-12-12-12-12-12-12---------------------12-12-12-12-12--|
--0--0--0--0--0--0-0-0-0-0-0-0-0-0-0-0--0--0--0--0--0--|

-------------------------------------------------------|
-------------------------------------------------------|
-------------------------------------------------------|
-------------------------------------------------------|
-13-13-13-13-13-13---------------------13-13-12-12-12--|
--0--0--0--0--0--0-0-0-0-0-0-0-0-0-0-0--0--0--0--0--0--|

------------------------------------------------------|
------------------------------------------------------|
------------------------------------------------------|
------------------------------------------------------|
-10-10-10-10-10-10---------------------10-10-12-12-12-|
--0--0--0--0--0--0-0-0-0-0-0-0-0-0-0-0--0--0--0--0--0-|

------------------------------------------------------|
------------------------------------------------------|
------------------------------------------------------|
------------------------------------------------------|
-13-13-12-12-12-12-----------------------------12-12--|
--0--0--0--0--0--0-0-0-0-0-0-0-0-0-0-0-0-0-0-0--0--0--|

Then this -
-------------------------------------------------------|
-------------------------------------------------------|
-------------------------------------------------------|
-14-14-14-14-14-14---------------------14-14-14-14-14--|
-12-12-12-12-12-12---------------------12-12-12-12-12--|
--0--0--0--0--0--0-0-0-0-0-0-0-0-0-0-0--0--0--0--0--0--|

-------------------------------------------------------|
-------------------------------------------------------|
-------------------------------------------------------|
-15-15-15-15-15-15---------------------15-15-14-14-14--|
-13-13-13-13-13-13---------------------13-13-12-12-12--|
--0--0--0--0--0--0-0-0-0-0-0-0-0-0-0-0--0--0--0--0--0--|

-------------------------------------------------------|
-------------------------------------------------------|
-------------------------------------------------------|
-12-12-12-12-12-12---------------------12-12-14-14-14--|
-10-10-10-10-10-10---------------------10-10-12-12-12--|
--0--0--0--0--0--0-0-0-0-0-0-0-0-0-0-0--0--0--0--0--0--|

------------------------------------------------------|
------------------------------------------------------|
-12-12-12-12-12-12---------------------12-12-12-12-12-|
------------------------------------------------------|
-10-10-10-10-10-10---------------------10-10-10-10-10-|
--0--0--0--0--0--0-0-0-0-0-0-0-0-0-0-0--0--0--0--0--0-|

-----------------------------------------------------------------|
-----------------------------------------------------------------|
-14-14-14-14-14-14-14-14-14-14-15-15-15-15-15-15/17-17-17-17-17--|
-----------------------------------------------------------------|
-12-12-12-12-12-12-12-12-12-12-13-13-13-13-13-13/15-15-15-15-15--|
--0--0--0--0--0--0--0--0--0--0--0--0--0--0--0--0--0--------------|


(distortion on, in at 0:47)
-----------------------------------------------------------------------|
-----------------------------------------------------------------------|
-----------------------------------------------------------------------|
-----------------------------------------------------------------------|
----------------------15--------------13-------------------------------|
-13-12-0-12-0-12-0-12----12-0-12-0-12----12-0-12-0-12-13-12-0-10-12-0--|


Verse - (all palm muted, in at 0:59)
-----------------------------------------------------------------------|
-----------------------------------------------------------------------|
-----------------------------------------------------------------------|
-----------------------------------------------------------------------|
----------------------15--------------13-------------------------------|
-13-12-0-12-0-12-0-12----12-0-12-0-12----12-0-12-0-12-13-12-0-10-12-0--|


Chorus - "Look at me . . ." (in at 1:22)
--------------------|--------------------|
--------------------|--------------------|
--------------------|--------------------|
--------------0\/~--|--------------------|
-0-1-0-1-0-1--0\/~--|-0-1-0-1-0-1--0-0-0-|
-0-1-0-1-0-1--0\/~--|-0-1-0-1-0-1--0-0-0-|
                                   * * *

--------------------|---------------------------|
--------------------|---------------------------|
--------------------|---------------------------|
--------------0\/~--|----------------1^ph-------|
-0-1-0-1-0-1--0\/~--|-0-1-0-1-0-1--0------3^ph--|
-0-1-0-1-0-1--0\/~--|-0-1-0-1-0-1--0------------|


Then the verse - 1:34


Then the chorus - 1:58


Post-Chorus - (rapid fire! In at 2:09)
------------------|-------------------|-------------------------|
------------------|-------------------|-------------------------|
------------------|-------------------|-------------------------|
------------------|-------------------|-------------------------|
-13-12-0-10-12-0--|--13-12-0-10-12-0--|--13-12-0-10-12---0-0-0--|
-13-12-0-10-12-0--|--13-12-0-10-12-0--|--13-12-0-10-12---0-0-0--|
                                                         * * *

------------------|-------------------|------------------------|
------------------|-------------------|------------------------|
------------------|-------------------|------------------------|
------------------|-------------------|------------------------|
-13-12-0-10-12-0--|--13-12-0-10-12-0--|--13-12-0-10-12---0\/~--|
-13-12-0-10-12-0--|--13-12-0-10-12-0--|--13-12-0-10-12---0\/~--|

------------------|-------------------|-------------------------|
------------------|-------------------|-------------------------|
------------------|-------------------|-------------------------|
------------------|-------------------|-------------------------|
-13-12-0-10-12-0--|--13-12-0-10-12-0--|--13-12-0-10-12---0-0-0--|
-13-12-0-10-12-0--|--13-12-0-10-12-0--|--13-12-0-10-12---0-0-0--|
                                                         * * *

------------------|-------------------|-------------------------|
------------------|-------------------|-------------------------|
------------------|-------------------|-------------------------|
------------------|-------------------|-------------------------|
-13-12-0-10-12-0--|--13-12-0-10-12-0--|--13-12-0-10-12---0-0-0--|
-13-12-0-10-12-0--|--13-12-0-10-12-0--|--13-12-0-10-12---0-0-0--|
                                                         * * *


Then this - (big ol' whammy bar bends, bend to desired pitch)
---------------------------|
---------------------------|
---------------------------|
-0(5^)\/~------------------|
-0(5^)\/~------------------|
-0(5^)\/~---5b\/~---3b\/~--|


Bridge - "Hey, all I need is what's real . . ." (in at 2:34)
-------------------------------------------------------|
-------------------------------------------------------|
-------------------------------------------------------|
-------------------------------------------------------|
-12-12-12-12-12-12---------------------12-12-12-12-12--|
--0--0--0--0--0--0-0-0-0-0-0-0-0-0-0-0--0--0--0--0--0--|

-------------------------------------------------------|
-------------------------------------------------------|
-------------------------------------------------------|
-------------------------------------------------------|
-13-13-13-13-13-13---------------------13-13-12-12-12--|
--0--0--0--0--0--0-0-0-0-0-0-0-0-0-0-0--0--0--0--0--0--|

------------------------------------------------------|
------------------------------------------------------|
------------------------------------------------------|
------------------------------------------------------|
-10-10-10-10-10-10---------------------10-10-12-12-12-|
--0--0--0--0--0--0-0-0-0-0-0-0-0-0-0-0--0--0--0--0--0-|

------------------------------------------------------|
------------------------------------------------------|
------------------------------------------------------|
------------------------------------------------------|
-13-13-12-12-12-12-----------------------------12-12--|
--0--0--0--0--0--0-0-0-0-0-0-0-0-0-0-0-0-0-0-0--0--0--|

Then this -
-------------------------------------------------------|
-------------------------------------------------------|
-------------------------------------------------------|
-14-14-14-14-14-14---------------------14-14-14-14-14--|
-12-12-12-12-12-12---------------------12-12-12-12-12--|
--0--0--0--0--0--0-0-0-0-0-0-0-0-0-0-0--0--0--0--0--0--|

-------------------------------------------------------|
-------------------------------------------------------|
-------------------------------------------------------|
-15-15-15-15-15-15---------------------15-15-14-14-14--|
-13-13-13-13-13-13---------------------13-13-12-12-12--|
--0--0--0--0--0--0-0-0-0-0-0-0-0-0-0-0--0--0--0--0--0--|

-------------------------------------------------------|
-------------------------------------------------------|
-------------------------------------------------------|
-12-12-12-12-12-12---------------------12-12-14-14-14--|
-10-10-10-10-10-10---------------------10-10-12-12-12--|
--0--0--0--0--0--0-0-0-0-0-0-0-0-0-0-0--0--0--0--0--0--|

------------------------------------------------------|
------------------------------------------------------|
------------------------------------------------------|
-15-15-14-14-14-14-----------------------------14-14--|
-13-13-12-12-12-12-----------------------------12-12--|
--0--0--0--0--0--0-0-0-0-0-0-0-0-0-0-0-0-0-0-0--0--0--|

(distortion, in at 2:57) "Please, help me find it please . . ."
----------------------------------------------------------------------|
----------------------------------------------------------------------|
-14--14-14-14-14--14-14-14-14--14-14-14-14-14-14--14/15--15-15-15-15--|
----------------------------------------------------------------------|
-12--12-12-12-12--12-12-12-12--12-12-12-12-12-12--12/13--13-13-13-13--|
--0---0--0--0--0---0--0--0--0---0--0--0--0--0--0---0------0--0--0--0--|

---------------------------------------------------------------|
---------------------------------------------------------------|
-15-15-15-15--15-15-15-15-15-15--12--12-12-12-12--12-12-12-12--|
---------------------------------------------------------------|
-13-13-13-13--13-13-13-13-13-13--10--10-10-10-10--10-10-10-10--|
--0--0--0--0---0--0--0--0--0--0---0---0--0--0--0---0--0--0--0--|

---------------------------------------------|
---------------------------------------------|
-12-12-12--12/14-14-14--14/15--15-15--15/17--|
---------------------------------------------|
-10-10-10--10/12-12-12--12/13--13-13--13/15--|
--0--0--0---0-----0--0---0------0--0---0-----|


Then the chorus - in at 3:09

Then the post-chorus - in at 3:33

Last chord -
------|
------|
------|
--0~--|
--0~--|
--0~--|

12.MY SACRIFICE

Intro -
(clean tone, let notes ring out)
-------------0-------------------------------------------------|
----------------0----------------------------------------------|
-------4-----------4-----------------------12----------12------|
----------4-----------4----------------12------12----------12--|
-2-------------------------0-------10--------------10----------|
--------------------------------0------------------------------|

-0-0--0----0----0----0-0--0------0------0---0--------|
-0-0--0----0----0----0-0--0------0------0---0--------|
-5-5--5/4--4/5--5----5-5--5/4----4/9----9---9/10-----|
--------------------------------------------------0--|
-5-5--5/4--4/5--5----5-5--5/4----4/9----9---9/10--0--|
-0-0--0----0----0----0-0--0------0------0---0-----0--|

-------------0-------------------------------------------------|
----------------0----------------------------------------------|
-------4-----------4-----------------------12----------12------|
----------4-----------4----------------12------12----------12--|
-2-------------------------0-------10--------------10----------|
--------------------------------0------------------------------|

Kick in the distortion and let the feedback roll a little

------------------------------|---------------------------|
------------------------------|---------------------------|
-5/4--4/5--5-5-5--4/5--5-5-5--|--5/4--4/5--5-5--4/5--5-4--|
------------------------------|---------------------------|
-5/4--4/5--5-5-5--4/5--5-5-5--|--5/4--4/5--5-5--4/5--5-4--|
-0----0----0-0-0--0----0-0-0--|--0----0----0-0--0----0-0--|

---------0---0-0--0-0------|------------0--0--0--0--0--0--0-----|
---------0---0-0--0-0------|------------0--0--0--0--0--0--0-----|
---------------------------|--/12--12--12-12-12-12-12-12-12--0--|
-4---4---4---4-4--4-4---0--|--/12--12--12-12-12-12-12-12-12--0--|
-2---2---2---2-2--2-2---0--|--/10--10--10-10-10-10-10-10-10--0--|
------------------------0--|--------—---------------------------|
                        *                                    *

Verse -
------------------------------|---------------------------|
------------------------------|---------------------------|
-5/4--4/5--5-5-5--4/5--5-5-5--|--5/4--4/5--5-5--4/5--5-4--|
------------------------------|---------------------------|
-5/4--4/5--5-5-5--4/5--5-5-5--|--5/4--4/5--5-5--4/5--5-4--|
-0----0----0-0-0--0----0-0-0--|--0----0----0-0--0----0-0--|

---------0---0-0--0-0------|-----------0-0--0--0-0-0------|
---------0---0-0--0-0------|-----------0-0--0--0-0-0------|
---------------------------|------------------------------|
-4---4---4---4-4--4-4---0--|--/5---5---5-5--5--5-5-5---0--|
-2---2---2---2-2--2-2---0--|--/5---5---5-5--5--5-5-5---0--|
------------------------0--|--/5---5—--5-5--5--5-5-5---0--|
                        *                              *

Right before the chorus do a pick scrape across the top D & A strings

Chorus -
When you are with me . . . . . . I'm free . . . .  . . . . I'm
--------------------------------------|-----------0-0-0-0-0-0-0-0--0--|
--------------------------------------|-------------------------------|
-5--5-5----9-10-10-12-----------------|-------------------------------|
-0--0-0-0--0--0--0--0--0-0-0-------0--|--7--7-7-7-7-7-7-7-7-7-7-7--7--|
-0--0-0-0--0--0--0--0--0-0-0-------0--|--4--4-4-4-4-4-4-4-4-4-4-4--4--|
-0--0-0-0--------------0-0-0-/5-3--0--|--0--0-0-0-0-0-0-0-0-0-0-0--0--|

Careless . . . . . . . . . I believe . . . . "
-----------------0--0--0--0--0--0---------0-0---------------------------|
------------------------------------------------------------------------|
------------------------------------------------------------------------|
-0--9-9-9-9-9-9-11-11-12-12-11--9--0-0--5-5-5---5p3--x--3--3h5--5p3--0--|
-0--9-9-9-9-9-9--9--9--9--9--9--9--0-0--5-5-5---5p3--x--3--3h5--5p3--0--|
-0--9-9-9-9-9-9--9--9--9--9--9--9--0-0--5-5-5---5p3--x--3--3h5--5p3--0--|
                                   * *                               *

Bridge - "I just want to say hello to again . . ."
---------------------------------------------------------------------------|
---------------------------------------------------------------------------|
-9/7--7-7-----7/5--5-5-----5/4--4-4-----2/4--4/5--5/4--4/7--7-7-5--5-5-----|
---------------------------------------------------------------------------|
-9/7--7-7--0--7/5--5-5--0--5/4--4-4--0--2/4--4/5--5/4--4/7--7-7-5--5-5--0--|
-0----0-0--0--0----0-0--0--0----0-0--0--0----0----0----0----0-0-0--0-0--0--|
           *          *         *                                 *

A little later on - (a Led Zeppelin like riff ala "Kashmir")
------------------------------------------------------------------|--------------|
------------------------------------------------------------------|--------------|
-13-13-13-13-----13-13-13-13--x--13-13-13-13-----13-13-13-13------|---------5~~--|
------------------------------x-----------------------------------|------0--0~~--|
-13-13-13-13--0--13-13-13-13--x--13-13-13-13--0--13-13-13-13--0---|--0-0-0--0~~--|
--0--0--0--0--0---0--0--0--0--x---0--0--0--0--0---0--0--0--0--0---|--0-0-0--0~~--|
              *                               *               *      * * *

Clean chorus - (listen to the song well to get this part and strum the chords)
-0--0-0-------4-4-----5-5-----7-7--7--|--0--0-0-0-0-0-0-0-0-0-0-0--0--|
-0--0-0----0--0-0--0--0-0--0--0-0--0--|--0--0-0-0-0-0-0-0-0-0-0-0--0--|
-5--5-5----0--0-0--0--0-0--0--0-0--0--|-------------------------------|
-0--0-0--0-0--0-0--0--0-0--0--0-0--0--|--7--7-7-7-7-7-7-7-7-7-7-7--7--|
-0--0-0--0-0--0-0--0--0-0--0--0-0--0--|--4--4-4-4-4-4-4-4-4-4-4-4--4--|
-0--0-0--0-0--0-0--0--0-0--0--0-0--0--|--0--0-0-0-0-0-0-0-0-0-0-0--0--|

-0--0-0-0-0-0-0-0-0--0---0--0--0-----0--0-0-0----0----0-0-0--|
-0--0-0-0-0-0-0-0-0--0---0--0--0--0--0--0-0-0--0-0----0-0-0--|
--------------------11--12----11--5--0----------------5-5-0--|
-9--9-9-9-9-9-9-9-9--9---9--9--9--0--0--5-5-5--5-5--0-0-0-0--|
-9--9-9-9-9-9-9-9-9--9---9--9--9--0--0--5-5-5--5-5--0-0-0-0--|
-9--9-9-9-9-9-9-9-9--9---9--9--9--0--0--5-5-5--5-5--0-0-0-0--|


Right before the distorted chorus Mark does harmonics
between the 2nd and 3rd frets -
-------------------|
-------------------|
-------------------|
-------------------|
-2.7^--2.7^--2.7^--|
-2.7^--2.7^--2.7^--|

Then it goes into the dirty chorus -
When you are with me . . . . . . I'm free . . . .  . . . . I'm
---------------------------------|-----------0-0-0-0-0-0-0-0--0--|
---------------------------------|-------------------------------|
-5--5-5--------------------------|-------------------------------|
-0--0-0-0-0-0-0-0-0-0-0-------0--|--7--7-7-7-7-7-7-7-7-7-7-7--7--|
-0--0-0-0-0-0-0-0-0-0-0-------0--|--4--4-4-4-4-4-4-4-4-4-4-4--4--|
-0--0-0-0-0-0-0-0-0-0-0-/5-3--0--|--0--0-0-0-0-0-0-0-0-0-0-0--0--|

Careless . . . . . . . . . I believe . . . . "
-----------------0--0--0--0--0--0---------0-0---------------------------|
------------------------------------------------------------------------|
------------------------------------------------------------------------|
-0--9-9-9-9-9-9-11-11-12-12-11--9--0-0--5-5-5---5p3--x--3--3h5--5p3--0--|
-0--9-9-9-9-9-9--9--9--9--9--9--9--0-0--5-5-5---5p3--x--3--3h5--5p3--0--|
-0--9-9-9-9-9-9--9--9--9--9--9--9--0-0--5-5-5---5p3--x--3--3h5--5p3--0--|
                                   * *                               *

Then the bridge riffs into the end

13.WEATHERED

Notes:

Verse - It is finger picked. I tried to get it as close as I could.
There might be a couple notes that I missed since he pick the notes fast.
But I put down the basic layout.

Chorus - This is pretty close. A lot closer than my last tab of this song.
Just listen to the song for when to play each chord.

Bridge - Just some octave riffs . . . sounds like some Zeppelin influence.

Other - There are a lot of fills in this song. I tried to add as many as I could.
Anything else you want to know you can email me.


Intro/Verse -
-3p0--------------------------------------0---------------2p0-2/4-0-----0--|
---------0-----------------0-----------------------------------------------|
------0-----------------------0--------------------------------------3-----|
------------0--------------------0------------0-5p3-0~---------------------|
-3-------------3-2---2~----------------------------------------------------|
-------------------------------------3/5--5--------------------------------|

-3p0--------------------------------------0--------------------7^--|
------0--------------------0-----------------------------12^---7^--|
---------0--------------------0--------------------------12^---7^--|
------------0--------------------0-------------5p3p0~--------------|
-3-------------3-2---2~--------------------------------------------|
-------------------------------------3/5--5------------------------|


Verse - (play with minor variations)
-3p0--------------------------------------0---------------2p0-2/4-0-----0--|
---------0-----------------0-----------------------------------------------|
------0-----------------------0--------------------------------------3-----|
------------0--------------------0------------0-5p3-0~---------------------|
-3-------------3-2---2~----------------------------------------------------|
-------------------------------------3/5--5--------------------------------|

Play this at 0:54 \"Maybe I can\'t accept the life that\'s mine . . .\"
-3p0--------------------------------------0-----------------------|
------0--------------------0--------------------------------------|
---------0--------------------0-----------------------------------|
------------0--------------------0-------------5p3p0~-----5^--5^--|
-3-------------3-2---2~-------------------------------------------|
-------------------------------------3/5--5-----------------------|

Going into first chorus -
---------|
---------|
---------| with distortion (in at 1:31)
-3h5-----|
------5--|
---------|


Chorus - "Me . . .I rusted and weathered . . ."
----------------------------------------|
----------------------------------------|
----5-5-5-5-5-----1-1-------------------|
-0--0-0-0-0-0--0--3-3--0--3-3-3-3-3--0--|
-0--0-0-0-0-0--0--1-1--0--3-3-3-3-3--0--|
-0--0-0-0-0-0--0-------0--3-3-3-3-3--0--|

"Barely holding together . . ."
-------------------------------|
-------------------------------|
---3/5--3----------------------|
0----------0--5-5-5-5-5-5-5-5--|
0--3/5--3--0--5-5-5-5-5-5-5-5--|
0----------0--5-5-5-5-5-5-5-5--|

"I'm covered with skin . . . . . . . ."
---------------------------------------|
---------------------------------------|
---------------------------------------|
-8--------8--------8--------8------0~--|
-8--------8--------8--------8------0~--|
---8-8-8----8-8-8----8-8-8----8-8--0~--|
* * * * * * * * * * * * * * * * * * * *

"That peals and it just . . . . won't heal"
---------------------------------------------|
---------------------------------------------|
---------------------------------------------|
------5--------5--------5----5--0--5p3-0-3b--|
------5--------5--------5----5--0--5p3-0-3b--|
--5-5---5--5-5---5--5-5---5—-5--0--5p3-0-3b--|
* * * * * * * * * * * * * * * * * * * * * * *

Going into verse 2 - (with distortion)
-----------------|
-----------------|
-----------------|
-3h5--3h5--3-----|
--------------5--|
-----------------|


Going into 2nd chorus -
--------------|------------------------------------------------------|
--------------|------------------------------------------------------|
--------------|------------------------------------------------------|
-3--3h5p3-----|--0-0--2.7^-2.7^-2.7^-2.7^--0-0--2.7^-2.7^-2.7^-2.7^--|
-----------5--|--0-0--2.7^-2.7^-2.7^-2.7^--0-0--2.7^-2.7^-2.7^-2.7^--|
--------------|--0-0--2.7^-2.7^-2.7^-2.7^--0-0--2.7^-2.7^-2.7^-2.7^--|

2.7^ = harmonics between 2nd and 3rd frets.

Then it goes into chorus

Bridge -
--------------------------------------------------------------------|
--------------------------------------------------------------------|
-5-x-5-x-5-x-5-x-x-5-5-5-5/6-5--x--5-x-5-x-5-x-5-x-5-x-5-5---5/6-5--|
--------------------------------x--8-x-8-x-8-x-8-x-8-x-8-8----------|
-5-x-5-x-5-x-5-x-x-5-5-5-5------x--5-x-5-x-5-x-5-x-5-x-5-5---5------|
-0---0---0---0-----0-0-0-0---------0---0---0---0---0---0-0----------|

--------------------------------------------------------------------|
--------------------------------------------------------------------|
-5-x-5-x-5-x-5-x-x-5-5-5-5/6-5--x--1-x-1-x-1-x-1-x-1-x-1-1---1/2-1--|
--------------------------------x-----------------------------------|
-5-x-5-x-5-x-5-x-x-5-5-5-5------x--1-x-1-x-1-x-1-x-1-x-1-1---1---1--|
-0---0---0---0-----0-0-0-0---------0---0---0---0---0---0-0---0---0--|

Then a little later strum these chords -
-------------------------------------------------------------|
-7---7---7---7-----7-7-7-7-----3---3---3---3---3-3-3-3---3/--|
-5-x-5-x-5-x-5-x-x-5-5-5-5--x--1-x-1-x-1-x-1-x-1-1-1-1---1/--|
----------------------------x----x---x---x---x---------------|
-5-x-5-x-5-x-5-x-x-5-5-5-5--x--1-x-1-x-1-x-1-x-1-1-1-1---1/--|
-0---0---0---0-----0-0-0-0-----0---0---0---0---0-0-0-0---0---|

Then at - \". . . fight . . . . to fight . . .\"
------------------------------------------------------|
------------------------------------------------------|
-1-1-1-1-1-1-1-1-1-1-1--------------------------------|
-3-3-3-3-3-3-3-3-3-3-3--0--5-5-5-5-5--0---5p3--0--3b--|
-1-1-1-1-1-1-1-1-1-1-1--0--5-5-5-5-5--0---5p3--0--3b--|
------------------------0--5-5-5-5-5--0---5p3--0--3b--|

Then it finishes on the chorus

Ends on this -
---------|
---------|
---------|
---0~~---|
---0~~---|
---0~~---|

Tab Key:
* = palm mute
h = hammer on
p = pull off
x = mute string
/ = slide up
^ = harmonic
~ = let note ring

That's the whole album.LONG LIVE MARK TREMONTI!!!
comments
print report bad tab
5 comments total. Showing first comments.
0 reply
Tremonti333 wrote on March 9 2006, 09:54 pm

This is excellent man, nice job...just one little problem, you might want to fix the distortion solo to my own prison...

Solo -
-----------------------------------------------------
-----------------------------------------------------
-----------------------------------------------------
------------------------15----15---------------------
-12v~~~~~~----0--12h13------------13�12v~~~~~~
-----------------------------------------------------

It might just be me but that looks a bit funny, heh. But nonetheless you did a f'n awesome job with this!

0 reply
hardrockker917 wrote on March 21 2006, 07:41 pm

great job, you spent a lot of time on this but what is 13�12v?

0 reply
tuluks wrote on May 19 2006, 03:26 am

nice tab but what theres just one little detail you left out...
what are the tunings for each song?

I want to post or [tab]
guest
You may want to rate the tab now too:
select rating
Please do not post tabs as comments. Select "correction" instead!