Oops, an error
Loading. Please wait.

Human Clay Tab

18,672 views 21 this week
21 commentsread comments
1 2 3 4 5
worth learning
x 19
add to favorites launch autoscroll
font size
0
reset
Autoscroll
+/-
esc
set tempo
stop
Contributor
WARNING: You are trying to view
                                    content from Ultimate-Guitar.com
                                    in an unauthorized application,
                                    which is prohibited.

                                    Please use an official Ultimate
                                    Guitar Tabs application for iPhone,
                                    iPad or Android to access legitimate
                                    chords, guitar, bass, and drum tabs
                                    from Ultimate-Guitar.com database.

                                    Type "ultimate guitar tabs" in Apple
                                    App Store's or Android Market's
                                    search to find the application.
                      Human Clay album
I work very hard for this, enjoy and try it
Trascribed:Fernando Delgado elrockero56@aol.com
------------------------------------------------------------
Tabbed for Drop-D Tuning 

                    Are you ready?
Intro: (Clean)
E-|------------------------------------------------------------------|
B-|------------------------------------------------------------------|
G-|---------------------------------------------------2--------------|
D-|-----------------------------------------------------0------------|
A-|--3--5-5-3-5-5--3-5-5-5b-5-5--3-5-5-3-5-5-3---0--------1-1b3-1-3--|
D-|--0--0-0-0-0-0--0-0-0-0--0-0--0-0-0-0-0-0-0-0---0--------------0--|



Play this twice:
E-|--------------------------------------------------------|
B-|--------------------------------------------------------|
G-|--------------------------------------------------3-----|
D-|-----------------------------------------------1--3--3--|
A-|--3--5-5-3-5-5--3-5-5-5b-5-5--3-5-5-3-5-5-3----1--1--3--|
D-|--0--0-0-0-0-0--0-0-0-0--0-0--0-0-0-0-0-0-0-0--1-----3--|



Play this once:
E-|--------------------------------------------|
B-|--------------------------------------------|
G-|--------------------------------------------|
D-|--------------------------------------------|
A-|--3--5-5-3-5-5--3-5-5-5b-5-5--3-5-5-3-5-5b--|
D-|--0--0-0-0-0-0--0-0-0-0--0-0--0-0-0-0-0-0---|
End Intro



Verse: (Played Lower with Distortion)
Part 1:Play three times
E-|--------------------------------------------------------|
B-|--------------------------------------------------------|
G-|--------------------------------------------------3-----|
D-|-----------------------------------------------1--3--3--|
A-|--3--5-5-3-5-5--3-5-5-5b-5-5--3-5-5-3-5-5-3----1--1--3--|
D-|--0--0-0-0-0-0--0-0-0-0--0-0--0-0-0-0-0-0-0-0--1-----3--|



Part 2
E-|------------------------------------------------------------------|
B-|------------------------------------------------------------------|
G-|---------------------------------------------------2--------------|
D-|-----------------------------------------------------0------------|
A-|--3--5-5-3-5-5--3-5-5-5b-5-5--3-5-5-3-5-5-3---0--------1-1/3-1-3--|
D-|--0--0-0-0-0-0--0-0-0-0--0-0--0-0-0-0-0-0-0-0---0--------------0--|
End of Verse



Chorus:Play twice (Distortion)
E-|---------------------------------------------------------|
B-|--1--1--------------------------------------3------------|
G-|--0--0----------0h2--------------------------------------|
D-|--2--0--3---0-------0-2-3-2-------0--3-2-0-----0--3-2-0--|
A-|--3--2--3---0----------------2-3-------------------------|
D-|--------3---0--------------------------------------------|
End Chorus



Repeat Verse: Part 1 four times and then Chorus twice



1st Bridge:Play 6 times (Clean)
E-|-----5-3-2--------------------------------3------|
B-|--3----------0-1-0-------------------------------|
G-|--2--------2-------2--------2-----4---4-5---5-4--|
D-|--0------------------4-5-4----4-5---5------------|
A-|--0----------------------------------------------|
D-|-------------------------------------------------|



Play twice: (Distortion)
E-|-----5-3-2--------------------------------3------|
B-|--3----------0-1-0-------------------------------|
G-|--2--------2-------2--------2-----4---4-5---5-4--|
D-|--0------------------4-5-4----4-5---5------------|
A-|--0----------------------------------------------|
D-|-------------------------------------------------|



Play twice:
E-|-----5-3-2--------------------------------3--|
B-|--3----------0-1-0---------------------------|
G-|--2--------2-------2--------2-----4---4-5----|
D-|--0------------------4-5-4----4-5---5--------|
A-|--0------------------------------------------|
D-|---------------------------------------------|
End 1st Bridge



2nd Bridge:Play 4 times (Distortion)
E-|-------------------|
B-|-------------------|
G-|--5--7--11--9--12--|
D-|-------------------|
A-|--3--5---9--7--10--|
D-|-------------------|
End 2nd Bridge



End by playing Chorus 3 times and 2nd Bridge


------------------------------------------------------------
                       What if?
 
Song- What If
Album- Human Clay
Written by- Creed
Transcribed by- Fernando Delgado
Tuning- dropped d(DADGBE)



Intro.(Clean Tone)(do not play the first note, just slide up to it and it 
will be heard)
e--------------5------3------1------------1----0-----------0--
B---------5--6---6--5---5--3---3--------3----3---3-------3----
G------7-------------------------1----1------------0---0------
D---/7--------------------------------------------------------
A------------5------0------1--------1--------0-------0--------
D-------------------------------------------------------------


e----0---------------------5-------3-------1------------1--
B--2---2--------------5--6---6---5---5---3---3--------3----
G--------0---------7---------------------------1----1------
D---------------/7-----------------------------------------
A--0-------0-------------5-----0-0-----0-1--------1--------
D----------------------------------------------------------


e----0-----------0----0-----------0---------------------------
B--3---3-------3----2---2-------2-----3~-3---3~2h3--5p3p2p0h2-
G--------0---0------------0---0-------------------------------
D-------------------------------------------------------------
A--0-------0--------0-------0---------1~-1---0~-0~--0---------
D-------------------------------------------------------------



Play softly (no pick...)
3 TIMES
e--------------------------------
B--------------------------------
G--------------------------------
D--------------------0-0-2-2-0---
A------------0h3h5-0-1-1-1-1-1---
D--0---0h3h5-------0-0-0-0-0-0---


4th TIME |(Distortion In)
e--------------------|-----------------
B--------------------|---[Harmonic]----
G--------------------|-------|---------
D--------------------|-0x----|---------
A------------0h3h5/----0x--- | --------
D--0---0h3h5-----------0x--- 3* -------

*Harmonic is played 2/3 the way up the third fret on the low D string - the
note is a C.



VERSE
8 TIMES
e----------------------------
B----------------------------
G----------------------------
D----------------------------
A--0--0-0-------3h5---1------
D--0--0-0--3h5x-----0---2b---
* * *
* = slight palm mute or muffle of strings...


CHORUS
(Strum chords indicated...)
e----------------------------------------------------
B----------------------------------------------------
G--3-----5---3----------------3----------------3-----
D--3---3-5---3--2-0------2-0--3--2-0------2-0--3--2--
A--1---3-3---1--2-0--3h5------1--2-0--3h5------1--2--
D--x---3-x---x--2-0-----------x--2-0-----------x--2--


e----------------------------------------|--------------
B----------------------------------------|--[Harmonic]--
G--3----5---3----------------3--------3--|------|-------
D--3--3-5---3--2-0------2-0--3--2-0---3--|------|-------
A--1--3-3---1--2-0--3h5------1--2-0---1-------- | ------
D--x--3-x---x--2-0-----------x--2-0---x-------- 3* -----


e-------------|-----------------
B--- VERSE ---|--(Pick slide)---
G---- 7x -----|---- CHORUS -----
D-------------|-----------------
A-------------|-----------------
D-------------|-----------------


INTERLUDE
2 TIMES
e----------------------------------------------
B----------------------------------------------
G----------------------------------------------
D----------------------------------------------
A----------------------------------------------
D--0-12-13-0-16-15-0-12-0-16-15-0-10-12-15-13--

(With Wah-Pedal) (With Wah-Pedal)
e-----------------------------------------------
B-----------------------------------------------
G-----------------------------------------------
D-----12x----12-13---------------------------------------------12x-13--
A--11-----11------------------------------------------------11---------
D------------------0-12-13-0-16-15-0-12-0-------0-0-0-0-0-0------------



6 TIMES
e----------------------------------------------
B----------------------------------------------
G----------------------------------------------
D----------------------------------------------
A----------------------------------------------
D--0-12-13-0-16-15-0-12-0-16-15-0-10-12-15-13--

(With Wah-Pedal)
e-----------------------------------------|
B-----------------------------------------|
G-----------------------------------------|
D----------------------------12x----------|
A-------------------------11----------13--|
D--0-12-13-0-16-15-0-12-0-------0-0-0-----|


(Screaming \"What If, What If...\")
e-----------------------------------------------------
B-----------------------------------------------------
G-------------------------------------------------3b--
D--0--0-0-4-0-0-0---3-0-4-3-4-3---0-0-4-0---0-3-0-2---
A--0--0-0-4-0-0-0---3-0-4-3-4-3---0-0-4-0---0-3-0-2---
D--0--0-0-4-0-0-0---3-0-4-3-4-3---0-0-4-0---0-3-0-2---


e-------------|---------------|-----------------------------
B-- CHORUS ---|--- (SLIDE) ---|--- (Screaming part) --------
G-------------|---------------|-----------------------3b~ --
D-------------|---------------|-----------------------2~ ---
A-------------|---------------|-----------------------2~ ---
D-------------|---------------|-----------------------2~ ---


KEY: h = hammer
p = pull off
b = bend note
X = muffle string(s)
~ = hold
* = slight palm mute or muffle of strings


------------------------------------------------------------
                       Beautiful

Author/Artist: Creed 
Title: Beautiful
Album: Human Clay
Transcribed by: Tuning: Drop D

This is close as I could get it. It sounds right.


Intro – “She wears a coat of color . . .”
-------------------------------------|---------------------------------|
-------------------------------------|---------------------------------|
-------------------------------------|---------------------------------|
-----3-------3h5-------2-------3-----|------3------3h5------2-------3--|
----------------------------------5--|---------------------------------|
0-0-----0-0-------0-0-----0-0--------|--0-----0-0------0-0----0-0------|

---------------|-----------------------------------------------------------|
---------------|-----------------------------------------------------------|
---------------|--3---3-3----3---3-3----3----------------------------------|
-0-0---3brp0~--|--1---1-1-0--1---1-1-0--1---3------3h5------2------3-------|
-0-0-----------|--1---1-1-0--1---1-1-0--1-----0-0------0-0----0-0-----5v~--|
-0-0-----------|--1---1-1-0--1---1-1-0--1-----0-0------0-0----0-0----------|

Verse –
-------------------------------------|---------------------------------|
-------------------------------------|---------------------------------|
-------------------------------------|---------------------------------|
-----3-------3h5-------2-------3-----|------3------3h5------2-------3--|
----------------------------------5--|---------------------------------|
0-0-----0-0-------0-0-----0-0--------|--0-----0-0------0-0----0-0------|

Chorus –
---------------|-----------------------------------------------------------|
---------------|-----------------------------------------------------------|
---------------|--3---3-3----3---3-3----3----------------------------------|
-0-0---3brp0~--|--1---1-1-0--1---1-1-0--1---3------3h5------2------3-------|
-0-0-----------|--1---1-1-0--1---1-1-0--1-----0-0------0-0----0-0-----5v~--|
-0-0-----------|--1---1-1-0--1---1-1-0--1-----0-0------0-0----0-0----------|

"Stripped Me"
| Play 4x  |   Play 4x    |
-----------|--------------|
-----------|--------------|
-----------|----------7b--|
-0-0--0-0--|--0-0--0------|
-0-0--0-0--|--0-0--0--5b--|
-0-0--0-0--|--0-0--0------|


Bridge - Play 2x (palm mute 0’s)   Then this -                     Repeat 14x
---------------------------------- ---------------------------------|------|
---------------------------------- ---------------------------------|------|
--------19b--------19b-------19b-- ---------------------------------|--19b-|
---------------------------------- --------15b----------15b---------|------|
--------17b--------17b-------17b-- ---------------------------------|--17b-|
-0-0--0-----0-0--0------0-0------- -0-0--0-------0-0--0-----0-0-0-0-|------|


Solo –

Guitar 1 - (rhythm)
-----------------------------------------------------------------------|
-----------------------------------------------------------------------|
-----------------------------------------------------------------------|
-7--7-7--7h9---9-9-9p7--4--4-4-4h5--5-5-5p4-4v--4-4-4h5v--5-5-5p4v--0--|
-5--5-5--5-----5-5-5----2--2-2-2----2-2-2---0---0-0-0-----0-0-0--------|
-5--5-5--5-----5-5-5----2--2-2-2----2-2-2---0---0-0-0-----0-0-0--------|

Guitar 2 - (lead)
------------------------------------14--|
------3-----------8-7--8/10---\7--8-----|
-2/4-----4---7/9------------------------|
----------------------------------------|
----------------------------------------|
----------------------------------------|

Play 14x  Then this -
------    ------|
------    ------|
--19--    --0~--|
------    --0~--|
--17--    --0~--|
------    --0~--|



------------------------------------------------------------                         Say I
Author/Artist: Creed 
Title: Say I
Album: Human Clay
Drop D tuning

Intro – the bends are full bends; Play the first part 2 x - 
------------------------------------------|----------------------------------|
------------------------------------------|----------------------------------|
-5--5-------5-------3-------3----------3--|-----------7-------5--7--7brb--5--|
-3--3---0---5---0---1---0---3---0--0---3--|--0-0-0-0--7--0-0--5--7--7brb--5--|
-3--3---0---3---0---1---0---1---0--0---1--|--0-0-0-0-----0-0-----------------|
-3--3---0-------0---1---0-------0--0------|--0-0-0-0-----0-0-----------------|
                                                                              
Then this -
---------------------------------------|------------------------------------0--|
---------------------------------------|-----------------10-12b-10----10-10-0--|
-5--5--5------5------3--3--3--3--3--3--|-----------10-12-10-12b-10-12-10-10----|
-3--3--3---0--5--0---1--1--3--1--1--3--|--0-0-0-0--10-12-----------12----------|
-3--3--3---0--3--0---1--1--1--1--1--1--|--0-0-0-0------------------------------|
-3--3--3---0-----0---1--1-----1--1-----|--0-0-0-0------------------------------|
                                                                             
---------------------------------------|-------|
---------------------------------------|-------|
-5--5--5------5------3--3--3--3--3--3--|-------|
-3--3--3---0--5--0---1--1--3--1--1--3--|--0~~--|
-3--3--3---0--3--0---1--1--1--1--1--1--|--0~~--|
-3--3--3---0-----0---1--1-----1--1-----|--0~~--|
                           
Verse - 
-----5-----------------------------|------------------------------|
---------3-------------3-----------|--------------8------------7--|
-----------------2/3-------3p0--2--|----------8------------7------|
-------------0---------------------|------0------------0----------|
-----------------------------------|------------------------------|
-0~--------------------------------|--0~--------------------------|                                                                             

Pre Chorus – “Who is to blame? . . .”
---------------------------------------|
-------10-----10-----10-----10-----10--|
----8------8------8------8------8------|
-0-------------------------------------|
---------------------------------------|
---------------------------------------|                                                                              

---------------------------------------|
-------10-----10-----10-----10-----10--|
----7------7------7------7------7------|
-0-------------------------------------|
---------------------------------------|
---------------------------------------|
                           
Repeat above 1 more time
                                                   
Then this – “Say I~~~ . . .”
---------------------------------------|
-------10-----10-----11-----10-----11--|
----8------8------8------8------8------|
-0-------------------------------------|
---------------------------------------|
---------------------------------------|
                                                                             
---------------------------------------|
-------10-----10-----11-----10-----11--|
----7------7------7------7------7------|
-0-------------------------------------|
---------------------------------------|
---------------------------------------|
                            
“Say I~~~~~~~~~~~~~~~~~~~~~~~~~~~~~ . . .”                                                  
-------------------------------------------------------------------------------|
-------10-----10--10-11--11-10-10-10---10------11--11----10----11-11-10-10-11--|
----8------8-------8--8---8--8--7--7----7-------7---7-----7-----7--7--7--7--7--|
-0-----------------0--0---0--0--0--0-0--0--0-0--0---0--0--0--0--0--0--0--0--0--|
--------------------------------0--0-0--0--0-0--0---0--0--0--0--0--0--0--0--0--|
-------------------------------------0--0--0-0--0---0--0--0--0--0--0--0--0--0--|
                                                                              
Chorus – full bends; play the first part 2x -   
------------------------------------------|----------------------------------|
------------------------------------------|----------------------------------|
-5--5-------5-------3-------3----------3--|-----------7-------5--7--7brb--5--|
-3--3---0---5---0---1---0---3---0--0---3--|--0-0-0-0--7--0-0--5--7--7brb--5--|
-3--3---0---3---0---1---0---1---0--0---1--|--0-0-0-0-----0-0-----------------|
-3--3---0-------0---1---0-------0--0------|--0-0-0-0-----0-0-----------------|
                                                                              
Then this -
---------------------------------------|------------------------------------0--|
---------------------------------------|-----------------10-12b-10----10-10-0--|
-5--5--5------5------3--3--3--3--3--3--|-----------10-12-10-12b-10-12-10-10----|
-3--3--3---0--5--0---1--1--3--1--1--3--|--0-0-0-0--10-12-----------12----------|
-3--3--3---0--3--0---1--1--1--1--1--1--|--0-0-0-0------------------------------|
-3--3--3---0-----0---1--1-----1--1-----|--0-0-0-0------------------------------|
                                                                             
---------------------------------------|-------|
---------------------------------------|-------|
-5--5--5------5------3--3--3--3--3--3--|-------|
-3--3--3---0--5--0---1--1--3--1--1--3--|--0~~--|
-3--3--3---0--3--0---1--1--1--1--1--1--|--0~~--|
-3--3--3---0-----0---1--1-----1--1-----|--0~~--|
         
Bridge – (palm muted)
-----------------|-----------------------|---------------------------|--------
-----------------|---------------3b------|---------------3b-------4--|--------
-----------------|---------------2b------|---------------2b-------3--|--------
-0---0---0----0--|--0---0---0----0----0--|--0---0---0----0----0---1--|--------
-0---0---0----0--|--0---0---0----0----0--|--0---0---0----0----0---1--|--------
-0---0---0----0--|--0---0---0----0----0--|--0---0---0----0----0---1--|--------
                     
Solo part – (palm muted)
Guitar 1 -                                                          
-----------------|-----------------------|---------------------------|--------
-----------------|---------------3b------|---------------3b-------4--|--------
-----------------|---------------2b------|---------------2b-------3--|--------
-0---0---0----0--|--0---0---0----0----0--|--0---0---0----0----0---1--|--------
-0---0---0----0--|--0---0---0----0----0--|--0---0---0----0----0---1--|--------
-0---0---0----0--|--0---0---0----0----0--|--0---0---0----0----0---1--|--------
           
Guitar 2 – (lots of delay)          
-----------------|-----------------------|---------------------------|--------
-10--------------|-----------------------|--11----------10-----------|--------
-----------------|-------------12-11-12--|-----12-11-12--------------|--------
-----------------|-----------------------|---------------------------|--------
-----------------|-----------------------|---------------------------|--------
-----------------|-----------------------|---------------------------|--------
                     
“Frantic fraction focus . . .”                                     |“So look . . .”
-----------------|-----------------------|-------------------------|-------------|
-----------------|---------------3b------|-------------------------|-------------|
-----------------|---------------2b------|-------------------------|-------------|
-0---0---0----0--|--0---0---0----0----0--|--0---0---0---0---0---0--|--1-1-1---0--|
-0---0---0----0--|--0---0---0----0----0--|--0---0---0---0---0---0--|--1-1-1---0--|
-0---0---0----0--|--0---0---0----0----0--|--0---0---0---0---0---0--|--1-1-1---0--|
                                                                              
“they lie~~~~~~”
----------------------------------|
----------------------------------|
-----------------------0----------|
-0----0----0----0------0-------0--|
-0----0----0----0------0-------0--|
-0----0----0----0------0-------0--|

Interlude – (play with fingers)
-5--5--5--5--5--5--5--5--5--|--5--5--5--5--5--5--5--|
-3--3--3--3--3--3--3--3--3--|-----------------------|
----------------------------|--0--2--3--0--3--0--2--|
-0--0--0--0--0--0--0--0--0--|-----------------------|
----------------------------|-----------------------|
----------------------------|-----------------------|

Calm Chorus part - (clean tone; strum chords) 
----------------------|
-------------------3--|
-5--------3--------2--|
-3--------1--------0--|
-3--------1--------0--|
-3--------1--------0--|

Chorus – (distortion) 2x - 
------------------------------------------5------------------------|
------------------------------------------3---3--3--3--3-----------|
-5-5--5\3--3----3--3--3---0--0---2--2-2---2---2--2--2--2----2---2--|
-3-3--0----1----1--1--1---0--0---0--0-0---0---0--0--0--0----0---0--|
-3-3--0----1----1--1--1---0--0---0--0-0---0---0--0--0--0----0---0--|
-3-3--0----1----1--1--1---0--0---0--0-0---0---0--0--0--0----0---0--|

Then this -
---------------------------------------|------------------------------------0--|
---------------------------------------|-----------------10-12b-10----10-10-0--|
-5--5--5------5------3--3--3--3--3--3--|-----------10-12-10-12b-10-12-10-10----|
-3--3--3---0--5--0---1--1--3--1--1--3--|--0-0-0-0--10-12-----------12----------|
-3--3--3---0--3--0---1--1--1--1--1--1--|--0-0-0-0------------------------------|
-3--3--3---0-----0---1--1-----1--1-----|--0-0-0-0------------------------------|
                                                        
                                       “ I~~ . . .”                     
---------------------------------------|----------------|
---------------------------------------|----------------|
-5--5--5------5------3--3--3--3--3--3--|----------------|
-3--3--3---0--5--0---1--1--3--1--1--3--|--0--0--0--0~~--|
-3--3--3---0--3--0---1--1--1--1--1--1--|--0--0--0--0~~--|
-3--3--3---0-----0---1--1-----1--1-----|--0--0--0--0~~--|


------------------------------------------------------------
            
                          Wrong Way

Wrong way

Drop-D Tuning

Tabbed by Fernando Delgado
    
Play 8 times
    
E-|-----------------------------------------------------------------|
B-|-----------------------------------------------------------------|
G-|-----------------------------------------------------------------|
D-|----------0-0---------0-0---------0-0----------0-0---0---0-------|
A-|------6-6---------3-5---------8-8----------3-5-------------------|
D-|--0-0---------0-0---------0-0----------0-0---------3---1---------|

E-|-----------------------------------------------------|
B-|-----------------------------------------------------|
G-|-----------------------------------------------------|
D-|----------0-0---------0-0----------------------------|
A-|------6-6---------3-5---------8-8-8-8-7-7-7-7--------|
D-|--0-0---------0-0---------0-0------------------------|

E-|---------------------------------------|
B-|---------------------------------------|
G-|--5--5--5--5-5-5-4--4--4--4-4-4--------|
D-|--3--3--3--3-3-3-2--2--2--2-2-2--------|
A-|--3--3--3--3-3-3-2--2--2--2-2-2--------|
D-|--3--3--3--3-3-3-2--2--2--2-2-2--------|

E-|----------------------------------------------------------------|
B-|----------------------------------------------------------------|
G-|----------------------------------------------------------------|
D-|----------0-0---------0-0---------0-0---------0-0---0---0-------|
A-|------6-6---------3-5---------8-8---------3-5-------------------|
D-|--0-0---------0-0---------0-0---------0-0---------3---1---------|

E-|-----------------------------------------------|
B-|-----------------------------------------------|
G-|--5--5--5--5-5-5-4--4--4--4-4-4-4-4-4----------|
D-|--3--3--3--3-3-3-2--2--2--2-2-2-2-2-2----------|
A-|--3--3--3--3-3-3-2--2--2--2-2-2-2-2-2----------|
D-|--3--3--3--3-3-3-2--2--2--2-2-2-2-2-2----------|

Part One 6 times and Part: Two 1 time, skip Interlude.
      
E-|--------------------------------------------------------------------|
B-|--3--3---------------8--8-8-8-8-8\7--6--6--6-6-6-6-5--5--5-5-5------|
G-|--2--2-5--5-5-5-5-7--7--7-7-7-7-7\6--5--5--5-5-5-5-4--4--4-4-4------|
D-|--0--0-5--5-5-5-5-5--5--5-5-5-5-5\4--3--3--3-3-3-3-2--2--2-2-2------|
A-|--0--0-3--3-3-3-3-5--5--5-5-5-5-5\4--3--3--3-3-3-3-2--2--2-2-2------|
D-|--0--0---------------5--5-5-5-5-5\4--3--3--3-3-3-3-2--2--2-2-2------|

E-|---------------------------------------|
B-|--3--3---------------8--8-8-8-8\7------|
G-|--2--2-5--5-5-5-5-7--7--7-7-7-7\6------|
D-|--0--0-5--5-5-5-5-5--5--5-5-5-5\4------|
A-|--0--0-3--3-3-3-3-5--5--5-5-5-5\4------|
D-|--0--0---------------5--5-5-5-5\4------|
    
  In Background, listen for it
E-|------------------------------------|
B-|------------------------------------|
G-|--14~----12~----12h14--10~----------|
D-|------------------------------------|
A-|------------------------------------|
D-|------------------------------------|
    
    Play 2 times
E-|-----------------------------------------------------------------------|
B-|-----------------------------------------------------------------------|
G-|-----------------------------------------------------------------------|
D-|-----------------------------------------------------------------------|
A-|--------5-5-5--------4-4-4-5-5-4-4-------------------------------------|
D-|--0-0-0-------0-0-0-----------------0-0-0-8-8-8-0-0-0-7-7-7-8-7-7-5----|
    p.m.______________________________________________________________| 

    Play 2 times
E-|--------------------------------------------------------------|
B-|--------------------------------------------------------------|
G-|--------------------------------------------------------------|
D-|-----------------------------------------8-8-8-------7-8-7-5--|
A-|--------5-5-5-------4-4-4-5-5-4-4--------8-8-8-------7-8-7-5--|
D-|--0-0-0-------0-0-0----------------0-0-0-8-8-8-0-0-0-7-8-7-5--|
  p.m._____________________________________|     |____|

    Play 1 time
E-|----------------------------------------------------------------------|
B-|----------------------------------------------------------------------|
G-|----------------------------------------------------------------------|
D-|----------------------------------------------------------------------|
A-|---------5-5-5--------4-4-4-5-5-4-4-----------------------------------|
D-|--0-0-0--------0-0-0-----------------0-0-0-8-8-8-0-0-0-7-7-7-8-7-7-5--|
    p.m._______________________________________________________________| 

E-|-----------------------------------------------------|
B-|-----------------------------------------------------|
G-|---------7-7-7--------6-6-6-7-7-6-6------------------|
D-|---------7-7-7--------6-6-6-7-7-6-6-0-0-0-8-8-8-0-7--|
A-|---------5-5-5--------4-4-4-5-5-4-4-0-0-0-8-8-8-0-7--|
D-|--0-0-0--------0-0-0----------------0-0-0-8-8-8-0-7--|
    p.m.__|      |_____|
   
    Play this 3 times
E-|----------6------------------------------0-------|
B-|------------6--------------------------3---3-----|
G-|--------8-----8------5------3------2--------2----|
D-|-----8----------8------5------1--0---------------|
A-|--6---------------3------------------------------|
D-|---------------------------1---------------------|

    Play this 1 time
E-|----------6-------------------|
B-|------------6-----------------|
G-|-------8------8------5--------|
D-|-----8----------8------5------|
A-|--6---------------3-----------|
D-|--------------------------0---|
   

    
E-|-----------------------------------------------------------------------------|
B-|--3---------------------------------------------3-----------------3----------|
G-|--2-----5--7---7/8\7--2-----5--7---7/8\7--2-----5--7---7/8--2-----5--7-------|
D-|--0--1--5--7---7/8\7--0--1--5--7---7/8\7--0--1--5--7---7/8--0--1--5--7--5-4-3|
A-|--0--1--3--5----------0--1--3--5----------0--1--3--5--------0--1--3--5--5-4-3|
D-|--0--1----------------0--1----------------0--1--------------0--1--3--0--5-4-3|
 
       
E-|------------------------------------------------|
B-|--8--8--8-8-8--8\7--6--6--6--6-6-6-5--5--5-5-5--|
G-|--7--7--7-7-7--7\6--5--5--5--5-5-5-4--4--4-4-4--|
D-|--5--5--5-5-5--5\4--3--3--3--3-3-3-2--2--2-2-2--|
A-|--5--5--5-5-5--5\4--3--3--3--3-3-3-2--2--2-2-2--|
D-|--5--5--5-5-5--5\4--3--3--3--3-3-3-2--2--2-2-2--|

E-|--------------------------------------------------------------------|
B-|--3--3---------------8--8-8-8-8-8\7--6--6--6-6-6-6-5--5--5-5-5------|
G-|--2--2-5--5-5-5-5-7--7--7-7-7-7-7\6--5--5--5-5-5-5-4--4--4-4-4------|
D-|--0--0-5--5-5-5-5-5--5--5-5-5-5-5\4--3--3--3-3-3-3-2--2--2-2-2------|
A-|--0--0-3--3-3-3-3-5--5--5-5-5-5-5\4--3--3--3-3-3-3-2--2--2-2-2------|
D-|--0--0---------------5--5-5-5-5-5\4--3--3--3-3-3-3-2--2--2-2-2------|
    
E-|-------------------------------------------|
B-|--3--3---------------8--8-8-8 8\7--6----5--|
G-|--2--2-5--5-5-5-5-7--7--7-7-7-7\6--5----4--|
D-|--0--0-5--5-5-5-5-5--5--5-5-5-5\4--3----2--|
A-|--0--0-3--3-3-3-3-5--5--5-5-5-5\4--3----2--|
D-|--0--0---------------5--5-5-5-5\4--3----2--|

    
E-|------------------------------------|
B-|------------------------------------|
G-|--14~----12~----12h14--10~----------|
D-|------------------------------------|
A-|------------------------------------|
D-|------------------------------------|
 
    _________________________
    Key:
    p.m.- Palm Mute
    /- slide up
    \- Slide down

------------------------------------------------------------
                      
                      Faceless Man                      

Tuning: Open D (low to high)- DADADD... the top strings are in unison

 During nearly the whole song, there's this:

 |--------------------------|
 |--------------------------|
 |--------------------------|
 |--------------------------|
 |-5vvvvvvvvvvvvvvvvvvvvvv--|
 |--------------------------|
   

 |-7p0------0-----------------------------|
 |-----8/10---10-------------------------o|Author/Artist: Creed
>Title: With arms wide open
>Album: human clay
>
>Song is easy.
>
>---------------|----------------|---------------|-------------|---------------
>-0h1------1----|-1\3---1-----010|-0h1----1-1----|3---1-----010|---------------
>----0-------0--|---------0------|----0-------0--|0-----0------|---------------
>------0--------|----------------|------0--------|-------------|---------------
>-3------3-----3|-----3-----3----|-2------2-----2|--2-----2----|---------------
>---------------|----------------|---------------|-------------|---------------
>                                                                              
>
>---------------|---------------|----------------|---------------|-------------
>-0h1------1----|010-------0----|-0h1-------1----|010-------0----|-------------
>----0-------0--|----0-------0--|-----0-------0--|----0-------0--|-------------
>------0--------|------0--------|-------0--------|------0--------|-------------
>-0------0-----0|--------0-----0|-0-------0-----0|--------0-----0|-------------
>---------------|---------------|----------------|---------------|-------------
> That is the first verse.                                                     
>
>--------3---3-3--3------------0-|-0---0---5--|--------------------------------
>-6------6---3-3--3------------0-|-0---0---5--|--------------------------------
>-5------5---5-5--5----------4-4-|-4---4---7--|--------------------------------
>-3------3--------5------------2-|-2---2---7--|--------------------------------
>-3---------------3--------------|-2---2---5--|--------------------------------
>-3------------------------------|-2---2------|--------------------------------
> That is the first chorus (note it is not strumming pattern)                  
>
>------------|----------------|--------------|--------------|------------------
>-0h1-----1--|-1h3---1-----010|-0h1-------1--|-1h3---1---010|------------------
>-----0-----0|-----0---0------|-----0-------0|---------0----|------------------
>------------|----------------|-------0------|--------------|------------------
>-------3----|-----------3----|---------2----|-----2--------|------------------
>------------|----------------|--------------|--------------|------------------
>                                                                              
>
>------------|------------|------------|------------|--------------------------
>-0h1-----1--|-3h1-----1--|-0h1-----1--|-010-----0--|--------------------------
>-----0-----0|-----0-----0|-----0-----0|-----0-----0|--------------------------
>-------0----|-------0----|-------0----|-------0----|--------------------------
>------------|------------|------------|------------|--------------------------
>------------|------------|------------|------------|--------------------------
> that is the little fill inbetween the first chourus and 2nd verse            
>
>-0----3-----3-----3----3--3---3---0--0-0-0--------------0--0-3-|--------------
>-1----3-----1-----1----1--1---1---1--1-1-1--3---3-3-3-3-1--1-1-|--------------
>-0----0-----0-----0----0--0---0---0--0-0-0--0---0-0-0-0-0--0-0-|--------------
>-2----0-----2-----2-------2---2---2---------0---0-------2--2-2-|--------------
>-3----2-----0-------------0---3---3---------2---2-------3--0-0-|--------------
>---------------------------------------------------------------|--------------
> That is the 2nd verse,(note,does not show strumming pattern)                 
>
>------------------------------------------------------------------------------
>------------------------------------------------------------------------------
>-----------------5-5-5-55-5-5---------------------7-7-7-7-77-7-7-5-5-5--------
>-5-55-5-55-55-5--5-5-5-55-5-5-3-4-4-44-4-4-4-44-4-7-7-7-7-77-7-7-5-5-5--------
>-5-55-5-55-55-5--3-3-3-33-3-3-3-4-4-44-4-4-4-44-4-5-5-5-5-55-5-5-5-5-5--------
>-3-33-3-33-33-3---------------3-2-2-22-2-2-2-22-2-----------------------------
> That is the 2nd chorus,use distortion                                        
>
>------------------------------------------------------------------------------
>------------------------------------------------------------------------------
>-------------------2------2------2------2-------------------------------------
>------------------------------------------------------------------------------
>--0---------------------------------------------------------------------------
>----------------------------------------------------------15\-----------------
> this is after the 2nd chorus,right before solo                               
>
>------------------------------------------------------------------------------
>-------5-6-5-6-5v--------56-56-5v------5/8-65-65v-65b-65b-6-8v----------------
>-5-5-7---------------5-7------------57----------------------------------------
>------------------------------------------------------------------------------
>------------------------------------------------------------------------------
>------------------------------------------------------------------------------
> guitar solo,distorted,can use wah                      That is all!!!        

------------------------------------------------------------
                           Higher
 


Date: Thu, 09 Sep 1999 16:50:01 -0400

Higher
Creed
Human Clay

"Dropped-D Tuning" (low to high DADGBE)

Intro
=====
   D                                A
e--------------------------------------------------------------------
B--------------------------------------------------------------------
G--7-7-7/9-9/11-11-9-11-11/12-12-11-9-11-11^9^7^9--------------------
D--0-0-0-0-0-0--0--0-0--0--0--0--0--0-0--0--0-0-0--------------------
A--------------------------------------------------------------------
D--------------------------------------------------------------------
   G
e--------------------------------------------------------------------
B--------------------------------------------------------------------
G--7--9--7--12^11-11-9^11-11--9-9^11-11------------------------------
D--0--0--0--0--0--0--0-0--0---0-0-0--0-------------------------------
A--------------------------------------------------------------------
D--------------------------------------------------------------------

   D                                A
e--------------------------------------------------------------------
B--------------------------------------------------------------------
G--7-7-7/9-9/11-11-9-11-11/12-12-11-9-11-11^9^7^9--------------------
D--0-0-0-0-0-0--0--0-0--0--0--0--0--0-0--0--0-0-0--------------------
A--------------------------------------------------------------------
D--------------------------------------------------------------------
   G
e-------------------------------|------------------------------------
B-------------------------------|------------------------------------
G--7--9--7----------------------|------------------------------------
D--0--0--0---5-0-0---5-0-0------|------------------------------------
A------------5-0-0---5-0-0------|------------------------------------
D------------5-0-0---5-0-0------|------------------------------------

Verse
=====
   Dsus2 G
e--0------------|----
B--3-----7------|----
G--2-----6------|----
D--0-----5------|----
A--0-----5------|----
D--0-----5------|----

Prechorus (palm-muted, x2)
=========
   F#                    G
e---------------------------------------------------|----------------
B---------------------------------------------------|----------------
G---------------------------------------------------|----------------
D--4-4-4-4-4-4-4-4-4-4-4-5-5-5-5-5-5-5-5-5-5-5-5-5--|----------------
A--4-4-4-4-4-4-4-4-4-4-4-5-5-5-5-5-5-5-5-5-5-5-5-5--|----------------
D--4-4-4-4-4-4-4-4-4-4-4-5-5-5-5-5-5-5-5-5-5-5-5-5--|----------------

Chorus
======
   D   Dsus2   G   F#D
e--------------------------------------------------------------------
B--------------------------------------------------------------------
G--7---7------------------6-7-9^7^6-7--------------------------------
D--7---7-------5---4-0-----------------------------------------------
A--5---4-------5---4-0-----------------------------------------------
D--------------5---4-0-----------------------------------------------

   D   Dsus2   G   F#D
e--2---0----------------------|-------
B--3---3----------------------|-------
G--2---2----------------------|--x2---
D--0---0-------5---4-0----4~--|-------
A--0---0-------5---4-0--------|-------
D--0---0-------5---4-0--------|-------

Repeat Verse
Repeat Prechorus
Repeat Chorus
Repeat Prechorus
Repeat Last Half of Intro

Bridge
======
   A   G
e--------------------------------------------------------------------
B--------------------------------------------------------------------
G--------------------------------------------------------------------
D--7---5----5-0-0---5-0-0--------------------------------------------
A--7---5----5-0-0---5-0-0--------------------------------------------
D--7---5----5-0-0---5-0-0--------------------------------------------

Repeat Intro
Repeat Chorus
 
------------------------------------------------------------
                     Wash away those years

it is in drop d tunning
e-------------------------------------------------
b-----6-----6------6------5-------5-h6-------5-h6-
g-------------------------5-------5----------5----
d--0-----0-----0------0-------0----------0--------
a------------------------------------------------
d------------------------------------------------


e------------------------------------------------
b----5-h6-p5---3------3-h5----3-h5----3-h5--------
g----5---------3------3-------3-------3----------
d-0----------------0--------0-------0-------------
a------------------------------------------------
d------------------------------------------------

e------------------------------------------------
b-3---2---2-h3------3-----------------------------
g-2---2---2---------2----------------------------
d---------------0---------------------------------
a------------------------------------------------
d------------------------------------------------

------------------------------------------------------------
                       Inside us all

TUNING: standard (E,A,D,G,B,E)


     INTRO/VERSE:

E|-------------------------0---------------------------------0------|
B|---------------------------0---------------------------------0----|
G|----------------------0------0------2------4------------0------0--|
D|----4-----5---------5-----------0------0-----0--------0-----------|
A|------2-----3-----3-----------------------------------------------|
E|--0-----0-----0-------------------3------3-------3----------------|


E|----------------------------------------------------------------------
B|----------------------------------------------------------------------
G|-----------------------------------------------/12-----11-----9h11p9\\
D|----4-----5-----7-----5-----4/5-----4-----5---------------------------
A|------2-----3-------------------------2-----3-------------------------
E|--0-----0----------0-----0-------0------0-----0------0------0---------

     CHORUS:

E-----------------------------------------------------------------------
B|----------------------------------------------------------------------
G|--5--5--5-5-5--5-5-4--4--4-4-4--4-4-7--7--7-7-7--7-7-7--7--7-7-7--7-7-
D|--5--5--5-5-5--5-5-5--5--5-5-5--5-5-7--7--7-7-7--7-7-7--7--7-7-7--7-7-
A|--3--3--3-3-3--3-3-5--5--5-5-5--5-5-5--5--5-5-5--5-5-5--5--5-5-5--5-5-
E|---------------3-3-3--3--3-3-3--3-3-0--0--0-0-0--0-0-0--0--0-0-0--0-0-
                     p.m.             p.m.                              p.m.

E|-------3--------------------------------------------------------------
B|---------3------------------------------------------------------------
G|--5--5-----5--5-5-4--4--4-4-4--4-4-7--7--7-7-7--7-7-7--7--7-7-7--7-7--
D|--5--5-----5--5-5-5--5--5-5-5--5-5-7--7--7-7-7--7-7-7--7--7-7-7--7-7--
A|--3--3-----3--3-3-5--5--5-5-5--5-5-5--5--5-5-5--5-5-5--5--5-5-5--5-5--
E|--------------3-3-3--3--3-3-3--3-3-0--0--0-0-0--0-0-0--0--0-0-0--0-0--
                    p.m.             p.m.             p.m.             p.m.

    E|-------3---------------------------------------------------------|
    B|---------3-------------------------------------------------------|
    G|--5--5-----5--5-5-4--4--4-4-4--4-4-7--7--7-7-7--7-7-7--7--7-7-7--|
    D|--5--5-----5--5-5-5--5--5-5-5--5-5-7--7--7-7-7--7-7-7--7--7-7-7--|
    A|--3--3-----3--3-3-5--5--5-5-5--5-5-5--5--5-5-5--5-5-5--5--5-5-5--|
    E|--------------3-3-3--3--3-3-3--3-3-0--0--0-0-0--0-0-0--0--0-0-0--|
                    p.m.             p.m.             p.m.

     1ST BRIDGE:

     Play this 2 times

    E|----------------------------------|
    B|----------------------------------|
    G|-------7-----7-----7-----7-----7--|
    D|---4-5---4-5---4-5---4-5---4-5----|
    A|----------------------------------|
    E|----------------------------------|


    Play this 1 time

    E|------2-2--2-2-2-------2-2--2-2-2--|
    B|------3-3--3-3-3-------3-3--3-3-3--|
    G|------2-2--2-2-2-------2-2--2-2-2--|
    D|--3-3-0-0--0-0-0---3-3-0-0--0-0-0--|
    A|--3-3--------------3-3-------------|
    E|--1-1--------------1-1-------------|

     2ND BRIDGE:

     Play this 2 times very fast


E|--------------------------------------------------------------------- 
B|18p17p15-18p17p15-18p17p15-18p17p15-18p17p15-18p17p15-18p17p1518p17p15
G|----------------------------------------------------------------------
D|----------------------------------------------------------------------
A|----------------------------------------------------------------------
E|----------------------------------------------------------------------

     Play this 2 times

    E|------------------------|
    B|--15-15----15-18-15-----|
    G|--------17----------17--|
    D|------------------------|
    A|------------------------|
    E|------------------------|



Then play the begining of the 2nd bridge(the part with the 18p17p15 on the b 
string) 3 times.

------------------------------------------------------------
        Thanks for comment good or bad is easy judge
21 comments total. Showing first comments.
0 reply
djs488 wrote on April 28 2002, 12:00 am

nice job but why don't you just buy the book instead of tabbing this all out?

0 reply
_systemguitar_ wrote on April 28 2002, 12:00 am

You're a freakin idiot! this fucking tab is Shit!It sucks! Creed rulez but this tab sucks. everything is wrong. This is SHIT TAB.

0 reply
_systemguitar_ wrote on April 28 2002, 12:00 am

Awful tab it just SUCKS

I want to post or [tab]
guest
You may want to rate the tab now too:
select rating
Please do not post tabs as comments. Select "correction" instead!