Oops, an error
Loading. Please wait.

My Own Prison Tab

ver1
ver1
More versions @911Tabs.com
30,075 views 31 this week
no commentswrite comment
1 2 3 4 5
accurate
x 4
Autoscroll
+/-
esc
set tempo
stop
Contributor
Hey! There's an official Ultimate Guitar app which is ideal
for learning songs when you're away from computer. Get the app
WARNING: You are trying to view
                                    content from Ultimate-Guitar.com
                                    in an unauthorized application,
                                    which is prohibited.

                                    Please use an official Ultimate
                                    Guitar Tabs application for iPhone,
                                    iPad or Android to access legitimate
                                    chords, guitar, bass, and drum tabs
                                    from Ultimate-Guitar.com database.

                                    Type "ultimate guitar tabs" in Apple
                                    App Store's or Android Market's
                                    search to find the application.
Band- Creed
Album- My Own Prison

Track Listings:
1.Torn
2.Ode
3.My Own Prison
4.Pity For A Dime
5.In America
6.Illusion
7.Unforgiven
8.Sister
9.What's This Life For
10.One

TORN

This is on Drop D tuning.


Intro - 3x                         4th time
--------------------------0--------|----------------------------------|
------------6----------------6-----|-------------6-6--6-6--6\8-8-8-8--|
----7p5-----------7p5-----------5--|-----7p5-----5-5--5-5--5\7-7-7-7--|
-0-------0-----0-------0-----------|--0-------0--0-0--0-0------0-0-0--|
-----------------------------------|----------------------------------|
-----------------------------------|----------------------------------|


Verse - 3x                          4th time
---------------------------0--------|---------------------------------|
------------6-6---------------6-----|-------------6--6-6--6/8--8-8-8--|
----7p5-----5-5-----7p5----------5--|-----7p5-----5--5-5--5/7--7-7-7--|
-0-------0-------0-------0----------|--0-------0--0--0-0-------0-0-0--|
------------------------------------|---------------------------------|
------------------------------------|---------------------------------|


Play the verse 2 times.


Pre-Chorus - 2x
----------------------------------------------------------------|
----------------------------------------------------------------|
-5--5--5-5-5-5--5-5-----5--5-5--5-----------5-------------------|
-3--3--3-3-3-3--5-5--0--5--5-5--5--0-0-0-0--3--0-0-0--3p0--0-0--|
-3--3--3-3-3-3--3-3--0--3--3-3--3--0-0-0-0--3--0-0-0--3p0--0-0--|
-3--3--3-3-3-3--3-3--0-------------0-0-0-0--3--0-0-0--3p0--0-0--|

------------------------------------------------|
------------------------------------------------|
------------------------------------------------|
--------------0-0-0--3p0--0-0-------------------|
-3-4-5-0-3-4--0-0-0--3p0--0-0--3-4-5-0-5-4-3-0--|
--------------0-0-0--3p0--0-0-------------------|


Chorus -
------------------------------------------------------------------|
------------------------------------------------------------------|
-5--5-5-5--x--5-5-5-5-----7--7-7-7--x--7-7--7--7-7-----10--10-10--|
-3--3-3-3--x--5-5-5-5--0--5--5-5-5--x--7-7--7--7-7--0---8---8--8--|
-3--3-3-3--x--3-3-3-3--0--5--5-5-5--x--5-5--5--5-5--0---8---8--8--|
-3--3-3-3--------------0--5--5-5-5------------------0---8---8--8--|

----------------------------------------------|
----------------------------------------------|
-10--10--x--10--10-10-10-10-----9--9-9--9-----|
--8---8--x--10--10-10-10-10-----7--7-7--7-----|
--8---8--x---8---8--8--8--8--0--7--7-7--7--0--|
--8---8----------------------0--7--7-7--7--0--|


--------------------|
--------------------|
--------------------|
-7\5----------------|
------7-5\3---------|
-------------3--5b--|


Play the verse

Then the pre chorus

Then the chorus


Interlude - (palm muted)
---------------------------------------------------------------------|
---------------------------------------------------------------------|
---------------------------------------------------------------------|
---------------------------------------------------------------------|
----------------------------6-6-------6-6-----------------4-5-4------|
-0-0--10-10--9-9--0-0--6-7-------0-0-------7-7--0-0--4-5--------5-0--|

End with this the 1st time -
--------------------------------------------------------------------|
--------------------------------------------------------------------|
--------------------------------------------------------------------|
----------3-3-3--------------3-3-3-3-0-----------2-2-2--------------|
--------------------------------------------------------------------|
-3-3-3-3---------3--3-3-3-3-------------2-2-2-2---------2--2-2-2-2--|

            End interlude with this the 2nd time (Riff I) -
------------|-------------------------------------------------|
------------|-------------------------------------------------|
------------|--5--5-5-5----------------4--4-4-4---------------|
-2-2-2-2-0--|--3--3-3-3----------------2--2-2-2---------------|
------------|--3--3-3-3--3-3--0--3--5--2--2-2-2--2-2--0--2-3--|
------------|--3--3-3-3--3-3--0--3--5--2--2-2-2--2-2--0--2-3--|

Then this 3x -
----------------------------------------------------------|
----------------------------------------------------------|
--------------------8-------8-----------------7--7--7-----|
--------------------8-------8--------------6--7--0--5-----|
-0--10--9--0--6--7--6--0-0--6--7--0--4--5--4--5--0--5--0--|
-0--10--9--0--6--7-----0-0-----7--0--4--5--------0--5--0--|

Then the verse 2x

Then this two times (clean, strum soft)
------------------------------------------|
------------------------------------------|
-5---5--/7---7---10---10---9---7---7------|
-3---5---5---7----8----8---7---0---5---0--|
-3---3---5---5----8----8---7---0---5---0--|
-3-------5--------8--------7---0---5---0--|

Outro - (Repeat and fade to black!)
----------------------------0-----------0---------|
------------6-------------------6-----------6-----|
----7p5------------7p5-------------5-----------5--|
-0-------0------0--------0------------0-----------|
--------------------------------------------------|
--------------------------------------------------|

ODE

Intro (4x):
E |----------------------|---------------------|
B |----------------------|---------------------|
G |----------------------|---------------------|
D |-0-0-0-7-0-6---(6)~~~~|-0-0-0-7-0-6-0-4~~~~~|
A |----------------------|---------------------|
D |----------------------|---------------------|

E |----------------------|---------------------|
B |----------------------|---------------------|
G |----------------------|---------------------|
D |-0-0-0-7-0-6---(6)~~~~|-0-0-0-7-0-6-0-4~~~~~|
A |----------------------|---------------------|
D |----------------------|---------------------|

E |----------------------|---------------------|
B |----------------------|---------------------|
G |----------------------|---------------------|
D |-0-0-0-7-0-6---(6)~~~~|-0-0-0-7-0-6-0-4~~~~~|
A |----------------------|---------------------|
D |----------------------|---------------------|

E |----------------------|---------------------|
B |----------------------|---------------------|
G |----------------------|---------------------|
D |-0-0-0-7-0-6---(6)~~~~|-0-0-0-7-0-6-0-4~~~~~|
A |----------------------|---------------------|
D |----------------------|---------------------|

E |------------------------------------|-------------------------------------|
B |------------------------------------|-------------------------------------|
G |------------------------------------|-------------------------------------|
D |-0-0-0-7-0-6-0-4-0-5-0-2-0-3-2-1----|-0-0-0-7-0-6-0-4-0-5-0-2-0-3-2-1-----|
A |------------------------------------|-------------------------------------|
D |------------------------------------|-------------------------------------|

E |------------------------------------|-------------------------------------|
B |------------------------------------|-------------------------------------|
G |------------------------------------|-------------------------------------|
D |-0-0-0-7-0-6-0-4-0-5-0-2-0-3-2-1----|-4*-4*-0-0-0-0-4*-4*-0-0-0-0-0-4*-4*-|
A |------------------------------------|-------------------------------------|
D |------------------------------------|-------------------------------------|

Verse:
E |------------------------------------|-------------------------------------|
B |------------------------------------|-------------------------------------|
G |------------------------------------|-------------------------------------|
D |-0-0-0-7-0-6-0-4-0-5-0-2-0-3-2-1----|-0-0-0-7-0-6-0-4-0-5-0-2-0-3-2-1-----|
A |-0-0-0-7-0-6-0-4-0-5-0-2-0-3-2-1----|-0-0-0-7-0-6-0-4-0-5-0-2-0-3-2-1-----|
D |-0-0-0-7-0-6-0-4-0-5-0-2-0-3-2-1----|-0-0-0-7-0-6-0-4-0-5-0-2-0-3-2-1-----|

E |------------------------------------|-------------------------------------|
B |------------------------------------|-------------------------------------|
G |------------------------------------|-------------------------------------|
D |-0-0-0-7-0-6-0-4-0-5-0-2-0-3-2-1----|-0-0-0-7-0-6-0-4-0-5-0-2-0-3-2-1-----|
A |-0-0-0-7-0-6-0-4-0-5-0-2-0-3-2-1----|-0-0-0-7-0-6-0-4-0-5-0-2-0-3-2-1-----|
D |-0-0-0-7-0-6-0-4-0-5-0-2-0-3-2-1----|-0-0-0-7-0-6-0-4-0-5-0-2-0-3-2-1-----|

E |------------------------------------|-------------------------------------|
B |------------------------------------|-------------------------------------|
G |------------------------------------|-------------------------------------|
D |-0-0-0-7-0-6-0-4-0-5-0-2-0-3-2-1----|-0-0-0-7-0-6-0-4-0-5-0-2-0-3-2-1-----|
A |-0-0-0-7-0-6-0-4-0-5-0-2-0-3-2-1----|-0-0-0-7-0-6-0-4-0-5-0-2-0-3-2-1-----|
D |-0-0-0-7-0-6-0-4-0-5-0-2-0-3-2-1----|-0-0-0-7-0-6-0-4-0-5-0-2-0-3-2-1-----|

Chorus:
E |------------------------------------|-------------------------------------|
B |------------------------------------|-------------------------------------|
G |-----2-----2-----2----2-----2-------|-4-----4-----4----4--4-------4--6----|
D |-----0-----0-----0----0-----0-------|-2-----2-----2----2--2-------2--4----|
A |-----0-----0-----0----0-----0-------|-2-----2-----2----2--2-------2--4----|
D |-----0-----0-----0----0-----0-------|-2-----2-----2----2--2-------2--4----|

E |------------------------------------|-------------------------------------|
B |------------------------------------|-------------------------------------|
G |-7-----7-----7--7-----7-----7-------|-------------------------------------|
D |-5-----5-----5--5-----5-----5-------|-------------4-----------------------|
A |-5-----5-----5--5-----5-----5---0--0|---5-----3-3---5----3-5-7-3----------|
D |-5-----5-----5--5-----5-----5---0--0|-----0-0--------------------3h4------|

E |------------------------------------|-------------------------------------|
G |------------------------------------|-------------------------------------|
B |-----2-----2-----2---2-------2------|-4-----4-----4-----4--4------4--6----|
D |-----0-----0-----0---0-------0------|-2-----2-----2-----2--2------2--4----|
A |-----0-----0-----0---0-------0------|-2-----2-----2-----2--2------2--4----|
D |-----0-----0-----0---0-------0------|-2-----2-----2-----2--2------2--4----|

E |------------------------------------|-------------------------------------|
G |------------------------------------|-------------------------------------|
B |-7-----7-----7--7-----7-----7-------|-------------------------------------|
D |-5-----5-----5--5-----5-----5-------|--------3-4-5---------3-4-5----------|
A |-5-----5-----5--5-----5-----5---0--0|-3-4-5---------3-4-5---------3-5-3---|
D |-5-----5-----5--5-----5-----5---0--0|-------------------------------------|

E |------------------------------------|-------------------------------------|
B |------------------------------------|-------------------------------------|
G |-----2-----2-----2----2-----2-------|-4-----4-----4----4--4-------4--6----|
D |-----0-----0-----0----0-----0-------|-2-----2-----2----2--2-------2--4----|
A |-----0-----0-----0----0-----0-------|-2-----2-----2----2--2-------2--4----|
D |-----0-----0-----0----0-----0-------|-2-----2-----2----2--2-------2--4----|

E |------------------------------------|-------------------------------------|
B |------------------------------------|-------------------------------------|
G |-7-----7-----7--7-----7-----7-------|-------------------------------------|
D |-5-----5-----5--5-----5-----5-------|-------------4-----------------------|
A |-5-----5-----5--5-----5-----5---0--0|---5-----3-3---5----3-5-7-3----------|
D |-5-----5-----5--5-----5-----5---0--0|-----0-0--------------------3h4------|

E |------------------------------------|-------------------------------------|
B |-----3-----3-----3---3-------3------|-------------------------------------|
G |-----2-----2-----2---2-------2------|-4-------4----4-----4--4-----4--6----|
D |-----0-----0-----0---0-------0------|-2-------2----2-----2--2-----2--4----|
A |-----0-----0-----0---0-------0------|-2-------2----2-----2--2-----2--4----|
D |-----0-----0-----0---0-------0------|-2-------2----2-----2--2-----2--4----|

E |------------------------------------|-------------------------------------|
B |------------------------------------|-------------------------------------|
G |-7---7---7-----7----7--7---7--7--7--|-------------------------------------|
D |-5---5---5-----5----5--5---5--5--5--|-------------------------------------|
A |-5---5---5-----5----5--5---5--5--5-0|-------------------------------------|
D |-5---5---5-----5----5--5---5--5--5-0|-------------------------------------|

Interlude:
E |------------------------------------|-------------------------------------|
B |------------------------------------|-------------------------------------|
G |------------------------------------|-------------------------------------|
D |--0-12-11-0-12-11-0-12-11-0-12-11-0-|12-11-0-12-11-0-12-11-0-0-1-2-3-3-2-1|
A |--0-12-11-0-12-11-0-12-11-0-12-11-0-|12-11-0-12-11-0-12-11-0-0-1-2-3-3-2-1|
D |--0-12-11-0-12-11-0-12-11-0-12-11-0-|12-11-0-12-11-0-12-11-0-0-1-2-3-3-2-1|

E |------------------------------------|-------------------------------------|
B |------------------------------------|-------------------------------------|
G |------------------------------------|-------------------------------------|
D |--0-12-11-0-12-11-0-12-11-0-12-11-0-|12-11-0-12-11-0-12-11-0-0-1-2-3-3-2-1|
A |--0-12-11-0-12-11-0-12-11-0-12-11-0-|12-11-0-12-11-0-12-11-0-0-1-2-3-3-2-1|
D |--0-12-11-0-12-11-0-12-11-0-12-11-0-|12-11-0-12-11-0-12-11-0-0-1-2-3-3-2-1|

E |------------------------------------|-------------------------------------|
B |------------------------------------|-------------------------------------|
G |------------------------------------|-------------------------------------|
D |---0-0-0-7-0-6-0-4-0-5-0-2-0-3-2-1--|-0-0-0-7-0-6-0-4-0-5-0-2-0-3-2-1-----|
A |------------------------------------|-------------------------------------|
D |------------------------------------|-------------------------------------|

E |------------------------------------|---------------------------------------|
B |------------------------------------|---------------------------------------|
G |------------------------------------|---------------------------------------|
D |---0-0-0-7-0-6-0-4-0-5-0-2-0-3-2-1--|4*-4*-0-0-0-0-4*-4*-0-0-0-0-4*-4*-4*-4*|
A |------------------------------------|---------------------------------------|
D |------------------------------------|---------------------------------------|

Verse

Chorus

E |------------------------------------|---------------------------------------|
B |------------------------------------|---------------------------------------|
G |------------------------------------|---------------------------------------|
D |---------3-4-5-------3-4-5----------|---------3-4-5-------3-4-5-------------|
A |---3-4-5-------3-4-5-------3-5-3----|---3-4-5-------3-4-5-------3-5-3-------|
D |------------------------------------|---------------------------------------|

E |------------------------------------|---------------------------------------|
B |------------------------------------|---------------------------------------|
G |------------------------------------|---------------------------------------|
D |---------3-4-5-------3-4-5----------|---------3-4-5-------3-4-5-------------|
A |---3-4-5-------3-4-5-------3-5-3----|---3-4-5-------3-4-5-------3-5-3-------|
D |------------------------------------|---------------------------------------|

E |------------------------------------|
B |------------------------------------|
G |------------------------------------|
D |------------------------------------|
A |--3-------------------3/------------|
D |------------------------------------|

Bridge (6x):
E |------------------------------------------|--------------------------------------|
B |------------------------------------------|--------------------------------------|
G |------------------------------------------|--------------------------------------|
D |------------------------------------------|-----------------0--0--1--2--3---3-2-1|
A |------------------------------------------|-----------------0--0--1--2--3---3-2-1|
D |-0-12-11-0-12-11-0-12-11-0-12-11-0-12-11-0|-12-11-0-12-11-0-0--0--1--2--3---3-2-1|

Chorus

E |------------------------------------|----------------------------------------|
B |------------------------------------|----------------------------------------|
G |------------------------------------|----------------------------------------|
D |--0-12-11-0-12-11-0-12-11-0-12-11-0-|-12-11-0-12-11-0-12-11-0--0-1-2-3--3-2-1|
A |--0-12-11-0-12-11-0-12-11-0-12-11-0-|-12-11-0-12-11-0-12-11-0--0-1-2-3--3-2-1|
D |--0-12-11-0-12-11-0-12-11-0-12-11-0-|-12-11-0-12-11-0-12-11-0--0-1-2-3--3-2-1|

E |------------------------------------|----------------------------------------|
B |------------------------------------|----------------------------------------|
G |------------------------------------|----------------------------------------|
D |--0-12-11-0-12-11-0-12-11-0-12-11-0-|-12-11-0-12-11-0-12-11-0--0-1-2-3--3-2-1|
A |--0-12-11-0-12-11-0-12-11-0-12-11-0-|-12-11-0-12-11-0-12-11-0--0-1-2-3--3-2-1|
D |--0-12-11-0-12-11-0-12-11-0-12-11-0-|-12-11-0-12-11-0-12-11-0--0-1-2-3--3-2-1|

E |------------------------------------------|--------------------------------------|
B |------------------------------------------|--------------------------------------|
G |------------------------------------------|--------------------------------------|
D |------------------------------------------|-----------------0--0--1--2--3---3-2-1|
A |------------------------------------------|-----------------0--0--1--2--3---3-2-1|
D |-0-12-11-0-12-11-0-12-11-0-12-11-0-12-11-0|-12-11-0-12-11-0-0--0--1--2--3---3-2-1|

E |------------------------------------------|--------------------------------------|
B |------------------------------------------|--------------------------------------|
G |------------------------------------------|--------------------------------------|
D |------------------------------------------|-----------------0-0--1--2-3--3-2-1--0|
A |------------------------------------------|-----------------0-0--1--2-3--3-2-1--0|
D |-0-12-11-0-12-11-0-12-11-0-12-11-0-12-11-0|-12-11-0-12-11-0-0-0--1--2-3--3-2-1--0|

E |------------------------------------------|--------------------------------------|
B |------------------------------------------|--------------------------------------|
G |------------------------------------------|--------------------------------------|
D |----0--0---1---2--3---3--2---1-----0------|----0--0---1---2--3---3--2---1-----0--|
A |----0--0---1---2--3---3--2---1-----0------|----0--0---1---2--3---3--2---1-----0--|
D |----0--0---1---2--3---3--2---1-----0------|----0--0---1---2--3---3--2---1-----0--|

MY OWN PRISON

Drop D tuning.

Intro -
----------------------------------------------------------------------|
-------------3--------------------------------------------------------|
------2------2---------------0-------------5---5----------------------|
------0------0---------0h3------3----------3---3---3------------------|
------0------0----0h1--------------0---3---3---3---3---3h5--3---------|
-0----0--------------------------------3---3--------------------5--3--|


Chorus -
------------------------------------|-----------------------------------|
---------------------------------3--|--3--3----5---5-----6--6--6--6--6--|
-5---------4----------3----------2--|--2--2----4---4-----5--5--5--5--5--|
-3---------2----------1----------0--|--0--0----0---0-----0--0--0--0--0--|
-3---------2----------1----------0--|-----------------------------------|
-3---------2----------1----------0--|-----------------------------------|


Distorted Verse -
-----------------------------------------------------------------------------|
---------3-----3--3-3--------------------------------------------------------|
---------2-----2--2-2-------------------5----5----5--------------------------|
---------0-----0--0-0---3----3----------3----3----3----3------------------0--|
-0-------0-----0--0-0---1----1----0--0--3----3----3----3---3h5--3------------|
-0-------0-----0--0-0-------------------3----3----3----------------5--3------|


Solo -
-------------------------------------------------------------------------------------|
-------------------------------------------------------------------------------------|
-------------------------------------------------------------------------------------|
------------------------15----15-----------------------------15-----15---------------|
-12v~~~~~~----0--12h13------------13�12v~~~~~~-----0--12h13-------------13----|
-------------------------------------------------------------------------------------|

---------------------------------------------------------------------------|
---------------------------------------------------------------------------|
---------------------------------------------------------------------------|
-------------------------------15-----15------15----------15-----------15--|
-12v~~~~~~~~~--------0--12h13-------------13--------12----------12h13------|
---------------------------------------------------------------------------|

---------|
---------|
---------|
-15------|
-----13--|
---------|

Last Strum -
----------------|
----------------|
----------------|
-------0~~~~----|
-------0~~~~----|
-------0~~~~----|

PITY FOR A DIME

Intro w/clean electric
-----0---4-----------------------------5--------------------------------------|
-0---0---4-4---------------5p4---------5--------------------------------------|
-9-9-9-0-4-4-------------6-----6-----6-6--------------------------------------|
-9-9---0-4-x-4---------6---------6h7-7----------------------------------------|
-7-7-----4-7-6-6h7p6-4---------------7---------9-7----------------------------|
-0-0---------------------------------5---0-5/7--------------------------------|

                                      2nd ending
------------0---------4-4-4-----7-----|-4-4-4-5-5-5-5-------------------------|
-0------------0-------4-4-4---7-7-----|-4-4-4-5-5-5-5-------------------------|
-9-9\-6---------6---5-5-5-5-8-8-8-----|-5-5-5-6-6-6-6-------------------------|
-9-9\---6---------6---6-6-6-9-9-9-9-9-|-6-6-6-7-7-7-7-9-----------------------|
-7-7\-----4-----------6-6-6-9-9---7-7-|-6-6-6-7-7-7-7-7-7---------------------|
-0--------------------4-4-4-7-7---0-0-|-4-4-4-5-5-5-5-0-0---------------------|

 going into chorus.. w/clean electric
---------------------5--------------------------------------------------------|
-------5p4-----------5-------0------------------------------------------------|
-----6-----6-----6-6-6-6-6---0------------------------------------------------|
---6---------6h7-7-7---7-7-7-0------------------------------------------------|
-4---------------7-----7-7-7--------------------------------------------------|
-----------------5-----5-5-5--------------------------------------------------|

 1st chorus w/clean electric
-0-0-0-0-0-0-0-0-0-3-3-3-3-3-3-3-3-3-3-3-3-3-2-2-2-2-2-2-0-0-0-0-0-0----------|
-0-0-0-0-0-0-0-0-0-3-3-3-3-3-3-3-3-3-3-3-3-3-2-2-2-2-2-2-0-0-0-0-0-0----------|
-9-9-9-9-9-9-9-9-9-4-4-4-4-4-4-4-4-4-4-4-4-4-4-4-4-4-3-3-3-3-3-3--------------|
-9-9-9-9-9-9-9-9-9-5-5-5-5-5-5-5-5-5-5-5-5-5-4-4-4-4-4-4-4-4-4-4--------------|
-7-7-7-7-7-7-7-7-7-5-5-5-5-5-5-5-5-5-5-5-5-5-2-2-2-2-4-4-4-4-4-4--------------|
-0-0-0-0-0-0-0-0-0-3-3-3-3-3-3-3-3-3-3-3-3-3---------2-2-2-2-2-2--------------|

interlude (clean)                           2nd ending w/distortion
---0---0-3p0---0-0-0-0----------------------|---------------------------------|
-0-0-x-0-0---x-3-0-0-0-0--------------------|---------------------------------|
-1-1-x-1-1---x-1-1-1-1-1--------------------|---------------------------------|
-2-2-x---2---x-2-2-2-2-2--------------------|---------------------------------|
-2-2---------------2-2---2-2---2-2---2-2----|-2-2---2-2---2-2-----------------|
-0-0---------------0-0---0-0-3-0-0-3-0-0-3v-|-0-0-3-0-0-3-0-0-3b--------------|
                                                              1/4
bridge
------------------------------------------------------------------------------|
---8-----8-8-8-8---8-----7-7-7-7-7---7--7-7-7-7-7-7-0-----0-------------------|
---x-----x-x-x-x---x-----7-7-7-7-7---7--7-7-7-7-7-7-0-----------4-4-----------|
---6-----6-6-6-6---6-----6-6-6-6-6---6--6-6-6-6-6-6-0-5-5-------4-4-----------|
------------------------------------------------------3-3---5-5-2-2-4-4-4-4---|
-0---0-0---------0---0-0-----------0------------------------3-3-----2-2-2-2---|


--------|---------------------------------------------------------------------|
--------|-----8---8-8-8-8-8---8-----------------------------------------------|
--------|---0-x---x-7-7-7-7---7-----------------------------------------------|
-----x3-|---0-6---6-6-6-6-6---6-------------------7-6-5-----------5-5-5-------|
-4------|-2-------------------------5h7-----2-2-2-------7-6-5-----3-3-3-5-5---|
-2-3----|-0-----0-----------0---0-0-----0-0-0-0-0-------------7-5-------3-3---|


------------------------------------------------------------------------------|
------------------------------------------------------------------------------|
------------------------------------------------------------------------------|
-4-4-4------------------------------------------------------------------------|
-2-2-2-4---4---4-5-2----------------------------------------------------------|
-------2-0-2-0-2-3-0----------------------------------------------------------|

2nd chorus w/distortion                 let ring  |----------------------------|
---------------------------------------------------0-----0---------------------|
-----------------------------------------------------0-----0-------------------|
-------9-----------------4-4-4-4-4-4-4---4-4-4-3-3-----3-----3-----------------|
-9-9-9-9-9-9-------------5-5-5-5-5-5-5-0-4-4-4-4-4-----------------------------|
-7-7-7-7-7-7-0-0-5-5-5-5-5-5-5-5-5-5-5-0-2-2-2-4-4-----------------------------|
---------0-0-0-0-3-3-3-3-3-3-3-3-3-3-3---------2-2-------------0---------------|

SOLO - guitar 2
------------------------------------------------------------------------------|
------------------------------------------------------------------------------|
-9-9-9999999999999999-99-9---5-5-4-4-4-3-3-3-3-3-3----------------------------|
-9-9-9999999999999999-99-9---5-5-5-4-4-4-4-4-4-4-4---x4-----------------------|
-7-7-7777777777777777-77-7-0-3-3-5-2-2-4-4-4-4-4-4----------------------------|
-0-0-0000000000000000-00-0-0-----3-----2-2-2-2-2-2----------------------------|

SOLO - guitar 1
--------------------------------------------------------------15-----14-------|
-----------------------------------------------------------------15v----14v---|
-2b-2brp0---0-------------12---------------------0-2brp0----------------------|
----------2---------12-14----14-14^v---------0-2---------2--------------------|
--------------------12-------------------0h2---------------0------------------|
------------------------------------------------------------------------------|
 full bends                     P.H.               1/2

------------------------------------------------------------------------------|
-14\-----15----------15-----15---15v------------------------------------------|
---------14b------------------------------------------------------------------|
------------------------------------------------------------------------------|
--------------------------------------------0---------------------------------|
------------------------------------------------------------------------------|
         full          -1/2           -6    -6 -5 -6 -5 -6 -5 -6 -5 -6 -5 -6

------------------------------------------------------------------------------|
----------------------13-13-12-12---0-15---15---------------------------------|
-------------5-5-4--4-------------0---14b--14br-14brp12----12v-12-------------|
--------------------------------------------------------14--------14----------|
-15\---3-2-2-----------------------------------------------------------12-14--|
------------------------------------------------------------------------------|
                                      full bends

------------------------------------------------------------------------------|
--------------------------/12-12-12h13p12----12-------------------------------|
----------------12------------------------14----14-12-11h12p11----------------|
-12----------------14-14\--------------------------------------14----14-13----|
----14-14-12-14---------------------------------------------------------------|
------------------------------------------------------------------14----------|

slight P.M.
      |....................................................................
------------------------------------------------------------------------------|
------------------------------------------------------------------------------|
------------------------------------------------------------------------------|
------------------------13-14-16-14-13--------------------------------13-14---|
-14\-----------12-14-15----------------15-14-12--------------12-14-15---------|
------12-14-15----------------------------------15-12--14-15------------------|

................................................|
------------------------------------------------------------------------------|
------------------------------------------------------------------------------|
------------------------------------------------------------------------------|
-16-14-13-----------------------------------13-13-16-13-14----13--------------|
----------15-14-12-----------------12-14-15----------------15----14-15-12-----|
-------------------15-14--12-14-15--------------------------------------------|

            pick really fast................................................
------12-12-1512141514121712141514121512141514121712141514121512121215121415--|
------------------------------------------------------------------------------|
------------------------------------------------------------------------------|
------------------------------------------------------------------------------|
-14v--------------------------------------------------------------------------|
------------------------------------------------------------------------------|

 .............|
-15121415171415-18-18b--------------------------------------------------------|
------------------------------------------------------------------------------|
------------------------------------------------------------------------------|
------------------------------------------------------------------------------|
------------------------------------------------------------------------------|
------------------------------------------------------------------------------|
             1/2
Outro
------------------------------------------------------------------------------|
---------------------------------------------------------8--------------------|
-------------------0-------------------------------------x--------------------|
-5-5-5---0-4-4-4---0-------0-5-5-5------4-4-4------------6--------------------|
-3-3-3-5-0-2-2-2-4---4-0-0-0-3-3-3-5--5-2-2-2-4-0-4------7--------------------|
-------3---------2---2-0-0---------3--3-------2-0-2-0-0--0--------------------|

IN AMERICA

VERSE
  D               F(maj7)/D         E/D
e------------------------------------------------------------------|
b-----------------------10-10--------------------------------------|
g-7---7--7--7--7--10-10-10-10-10-10-9--9---9--10-9--9---9--9--9--9-|
d-4---4--4--4--4--7--7--7--7--7--7--6--6---6--7--6--6---6--6--6--6-|
a-5---5--5--5--5/-8--8--8--8--8--8/-7--7---7--8/-7--7---7--7--7--7-|
d-0---0--0--0--0--0--0--0--0--0--0--0--0---0--0--0--0---0--0--0--0-|

  D               F(maj7)/D         E/D
e---------------------------------------------|
b-----------------------10-10-----------------|
g-7---7--7--7--7--10-10-10-10-10-10-9--9------|
d-4---4--4--4--4--7--7--7--7--7--7--6----6----|
a-5---5--5--5--5/-8--8--8--8--8--8/-7------7--|
d-0---0--0--0--0--0--0--0--0--0--0--0---------|

CHORUS
  D                         G        Em/G G
e-----------------------------------------------------|
b-----------------------------------------------------|
g-----------------------------------------------------|
d-0--0-0--0-0--0-0--0-0-0-0-5--5-5--5-5--5-5--5-5-5-5-|
a-0--0-0--0-0--0-0--0-0-0-0-5--5-5--5-7--5-5--5-5-5-5-|
d-0--0-0--0-0--0-0--0-0-0-0-5--5-5--5-5--5-5--5-5-5-5-|

  B      F/B B            E       B/E  E
e-----------------------------------------------------|
b-----------------------------------------------------|
g-----------------------------------------------------| 2x
d-9--9-9-9--9-9--9-9-9-9--2--2-2--4--2-2--2-2-2-2-(1)-|
a-9--9-9-10-9-9--9-9-9-9--2--2-2--2--2-2--2-2-2-2-(1)-|
d-9--9-9-9--9-9--9-9-9-9--2--2-2--2--2-2--2-2-2-2-(1)-|

BRIDGE
  D               F E D#
       m..
e-----------------------|
b-----------------------|
g-----------------------| 4x
d-0--------0--0-0-3-2-1-|
a-0--0-----0--0-0-3-2-1-|
d-0--0-0-0-0--0-0-3-2-1-|

INTERLUDE
e---------------------------------|
b---------------------------------|
g---------------------------------| 4x   then 8x at double speed
d---------------------------------|
a---8-7---6-7---6-5---3-5-------8-|
d-0-----0-----0-----0-----0-0-0---|

ILLUSION

Intro -  (notes in (12) is where Mark switches the toggle switch up & down)
------------------------------------------------------------------------------|
-13---(13)-(13)-(13)-(13)-----------------------------------------------------|
-12b--(12)-(12)-(12)-(12)---10-10-12---10--10-12p10-----10--12b--12b--10------|
----------------------------------------------------12--------------------12--|
------------------------------------------------------------------------------|
------------------------------------------------------------------------------|

----------------|-----------------------------------------------------------|
----------------|-----------------------------------------------------------|
----------------|-----------------------------------------------------------|
-10--------\10--|--4---3---3----0----4--------0--0---4---3-3-3-3--0--4------|
----------------|--2---3---3----0--------5----0--0---2---3-3-3-3--0------5--|
----------------|------3---3----0-------------0--0-------3-3-3-3--0---------|


Verse
------------------------------------------------------------|
------------------------------------------------------------|
------------------------------------------------------------|
------------------------------------------------------------|2x
-2--2--2--2--2--2-------------------------------------------|
--------------------3--3--3--3--3--3--3--3--3--3----0----0--|

(So I lie awake and stare . . .)
---------------------------|
---------------------------|
---------------------------|
---------------------------|2x
-------------2~------------|
-0--0------------------3~--|


Going into Chorus -
--------------------------------------------------|
--------------------------------------------------|
--------------------------------------------------|
--------------------------------------------------|
--------------------------------------------------|
-3b---0--0---0----0--4^--0----0--4^--0---0--0--0--|


Chorus  Play 4x
-----------------------------------------------------------------|
-----------------------------------------------------------------|
-----------------------------------------------------------------|
-4--4--4--4---3---3-------3---3--3---0----0--0--0---4----4-------|
-2--2--2--2---3---3-------3---3--3---0----0--0--0-------------5--|
--------------3---3---0---3---3--3---0----0--0--0----------------|


Solo -
------------------------------------------------------------------------------|
------------------------------------------------------------------------------|
------------------------------------------------------------------------------|
--------------------------------------------------------------5---------------|
-5~~~~~~-------3--3--3h5----3--3--3h5~~~------5--7--8---7--8-------7--7--8----|
------------------------------------------------------------------------------|

------------------------------------------------------------------------------|
------------------------------------------------------------------------------|
----------------------------------------6--7--9--6--7---6---------------------|
-------------------------------5--7--8----------------8---7--8--5--7---5------|
-5--5--7--3----3/5-----5--7--8---------------------------------------8---7----|
------------------------------------------------------------------------------|

-------------------------------|--------|
-------------------------------|--------|
-------------------------------|---7/---|Let the chord ring
-------------------------------|---7/---|then slide down
-8--5--7--8--5--7-8--5--7---0--|---5/---|
-------------------------------|--------|

Repeat 7x -
--------------------------------------------------|
--------------------------------------------------|
-------6--7-----6--7--6-----6--7--9--7--6---------|
----7---------------------------------------8--7--|
-5-----------8-----------7------------------------|
--------------------------------------------------|

Strum -
---10---|
----x---|
----7---|
--------|
--------|
--------|

Bridge -
("Wait now many thing are left unsaid . . .")
----------------------------------------------------------------------------|
----------------------------------------------------------------------------|
----------------------------------------------------------------------------|
-12---12---0-0-0---8---8--8--8---0-0-0---10---10---0-0---7---7-7-7-7--0--0--|4x
-12---12---0-0-0---8---8--8--8---0-0-0---10---10---0-0---7---7-7-7-7--0--0--|
-12---12---0-0-0---8---8--8--8---0-0-0---10---10---0-0---7---7-7-7-7--0--0--|

Interlude
Play 4x                                Play 4x
---------------------------------------|------------------------------------|
---------------------------------------|------------------------------------|
---------------------------------------|------------------------------------|
--------------0--0------------------0--|-------------0--0----------------0--|
--------------0--0------------------0--|--9-10-9-10--0--0--9-10-12-10-9--0--|
-4--5--4--5---0--0---4--5--7--5--4--0--|-------------0--0----------------0--|

Play 8x Just an illusion . . .
---------------------------------------|
---------------------------------------|
---------------------------------------|
-4--5--4--5---0--0---4--5--7--5--4--0--|
-4--5--4--5---0--0---4--5--7--5--4--0--|
-4--5--4--5---0--0---4--5--7--5--4--0--|


Outro
-----------------------------------------------------------------|
-----------------------------------------------------------------|
-----------------------------------------------------------------|
-4--4--4--4---3---3-------3---3--3---0----0--0--0---4----4-------|
-2--2--2--2---3---3-------3---3--3---0----0--0--0-------------5--|
--------------3---3---0---3---3--3---0----0--0--0----------------|

--------|
--------|
--------|Let
---3~---|Ring
---3~---|
---3~---|

UNFORGIVEN

Intro and Verse
e---------------------------------------------------------|
B---------------------------------------------------------|
G---------------------------------------------------------|
D--------------0h6-------------0h6-------------0h6--------|
A-xx-12-0-0-0h6-----x-0-0-0-0h6-----x-0-0-0-0h6-----0-6p5-|
D-xx-12-0-0---------x-0-0-0---------x-0-0-0---------0-6p5-|

_____________________________________________________________________

Im not not sure what part of the song this is so just listen to the song
e-------------------------------------------------------------|
B-------------------------------------------------------------|
G-------------------------------------------------------------|
D-------------------------------------------------------------|
A----------5p3----------5p3-5p3---------5p3----------5p3-5p3--|
D-00000000-----00000000---------00000000-----00000000---------|
PM--------|  PM--------|      PM--------|  PM-----------------|

e-------------------------------------------------------------------------|
B-------------------------------------------------------------------------|
G-------------------------------------------------------------------------|
D-------------------------------------------------------------------------|
A----------5p3----------5p3-5p3----------5p3----------5p3-5p3-5p3-5p3--0--|
D-00000000-----00000000---------00000000-----00000000------------------0--|
PM--------|  PM--------|      PM--------|  PM-----------------------------|

SISTER

 I.  (w/ Clean tone...)
e------------|-------------------------------------------------|
B------------|-------------------------------------------------|
G--x-x--x-x--|-11--11-11--12-12/14--14-14-14-14--11-11-11/12---|
D--x-x--x-x--|--0---0--0---0--0--0---0--0--0--0---0--0--0--0---|
A--x-x--x-x--|--0---0--0---0--0--0---0--0--0--0---0--0--0--0---|
D------------|--0---0--0---0--0--0---0--0--0--0---0--0--0--0---|


e-------------------------------------|----------------------|
B-------------------------------------|----------------------|
G--12-12-12-11--11-11-11-12p11--9-11--|-11--11-11--12-12/14--|
D---0--0--0--0---0--0--0--0-----0--0--|--0---0--0---0--0-----|
A---0--0--0--0---0--0--0--0-----0--0--|--0---0--0---0--0-----|
D---0--0--0--0---0--0--0--------0--0--|--0---0--0---0--0-----|


e----------------------------------------------------------|
B----------------------------------------------------------|
G--14-14-14--11-11-11/12--12-12-12-11--11-11-11-12p11--9---|
D---0--0--0---0--0--0------0--0--0--0---0--0--0--0-----0---|
A---0--0--0---0--0--0------0--0--0--0---0--0--0--0-----0---|
D---0--0--0---0--0--0------0--0--0--0---0--0--0--0---------|


  II.
e-10--10--10---x--12--12---12--x--12-12--x---13--13---13--x-15-15--|
B-10--10---7---x--12--12---12--x--12--9--x---13--13---13--x-15-15--|
G--7---7---7---x---9---9----9--x---9--9--x---10--10---10--x-12-12--|
D--7---7---7---x---9---9----9--x---9--9--x---10--10---10--x-12-12--|
A------0---------------0-----------0--------------0-------------0--|
D------0---------------0-----------0--------------0-------------0--|


                   |TWO TIMES                           |
e-15-----15-15-x-x-|-12/13-10-x-x-12/13-x-10-x-x-10-----|
B-15-----15-15-x-x-|-12/13-10-x-x-12/13-x-10-x-x-10-----|
G-12--12-12-12-x-x-|--9/10--7-x-x--9/10-x--7-x-x--7-----|
D-12--12-12-12-x-x-|--9/10--7-x-x--9/10-x--7-x-x--7-----|
A--0------0--------|--0------------0-------0------0--0--|
D--0------0--------|--0------------0-------0------0--0--|




e--12/13-10-x-x-12/13-x-10-x-x-10-----12--|
B--12/13-10-x-x-12/13-x-10-x-x-10-----12--|
G---9/10--7-x-x--9/10-x--7-x-x--7------9--|
D---9/10--7-x-x--9/10-x--7-x-x--7------9--|
A---0------------0-------0------0--0------|
D---0------------0-------0------0--0------|


e-12/13--15----12/13-----15-x-x-15-----12--12/13--10-x-x---|
B-12/13--15----12/13-----15-x-x-15-----12--12/13--10-x-x---|
G--9/10--12-----9/10-----12-x-x-12------9---9/10---7-x-x---|
D--9/10--12-----9/10-----12-x-x-12------9---9/10---7-x-x---|
A--0---------0--------0----------0---0------0--------------|
D--0---------0--------0----------0---0------0--------------|


                         |(Distortion in...)   ^=Harmonic
e--12/13------10----10---|-----------------------|
B--12/13------10----10---|---7^-7^-7^-7^-7^-7^---|
G---9/10-------7-----7---|---7^-7^-7^-7^-7^-7^---|
D---9/10-------7-----7---|-----------------------|
A---------0----------0---|-----------------------|
D---------0------0---0---|-----------------------|

  III. (2x  Let ring)
e------------------------------------------------|
B------------------------------------------------|
G------------------------------------------------|
D---------7----------------------------------5---|
A-----7h9------7h9--5----7h9--5--(5)--7h9--5-----|
D--0--------0---------0-------------0------------|

 Verse  (4x  Palm mute)
e-------------------------------------------------|
B-------------------------------------------------|
G-------------------------------------------------|
D---------7-----------------------------------5---|
A-----7h9-------7h9--5----7h9--5---5---7h9--5-----|
D--0--------0-0---------0--------0---0------------|



PRE-CHORUS
 (3x  Palm mute w/ R.H. over bridge)
e-----------------------------------------------|
B-----------------------------------------------|
G-----------------------------------------------|
D--0-0-0-10-9-0-0-9-8-0-0-8-7-0-0--0------------|
A--0-0-0-10-9-0-0-9-8-0-0-8-7-0-0--0-9h10-9h10--|
D--0-0-0-10-9-0-0-9-8-0-0-8-7-0-0--0------------|


 4th time  (Palm mute)
e---------------------------------------------------|
B---------------------------------------------------|
G-------------------------------7/9--9--9-9---9/11--|
D--0-0-0-10-9-0-0-9-8-0-0-8-7---x-x--x--x-x-x-x--x--|
A--0-0-0-10-9-0-0-9-8-0-0-8-7---5/7--7--7-7-0-7/-9--|
D--0-0-0-10-9-0-0-9-8-0-0-8-7---0-----------0-0-----|


 CHORUS riff- 4x
 "Now realize..."                  | Ends w/ 1st & 3rd time
e----------------------------------|------------------------|
B----------------------------------|------------------------|
G----------------------------------|--9/11--11-11--11-11/12-|
D--0------10-9-----9-8--------8-7-----x--x---x--x---x--x--x-|
A--0--0-0-10-9-0-0-9-8-0--0-0-8-7-----7/-9---9--9---9--9/10-|
D--0--0-0-10-9-0-0-9-8-0--0-0-8-7-----0----------------0----|


 Ends w/ 2nd & 4th time
e------------------------|
B------------------------|
G---7/9--9-9--9---9/11---|
D---x-x--x-x--x-x-x--x---|
A---5/7--7-7--7-0-7/-9---|
D---0-----------0-0------|

 CHORUS rhythm- 4x         (Gtr.2 fill)
 "Bottled up..."
e----------------------------------|
B---3------------------------------|
G---2-----4-----2-----7-----4------|
D---0-----4-----2-----5-----2------|
A---0-----2-----0-----5-----2------|
D---0-----x-----------5-----2------|


 Guitar 2 fill...
e-------------------------------------------------------|
B--------10---------------------------------------------|
G--9h11-------9h11----------9h11----------9h11----------|
D-------------------12-12---------12-12---------12-12---|
A-------------------------------------------------------|
D-------------------------------------------------------|


e------------------------------------------------------------|
B------------------------------------------------------------|
G--9h11----------9h11--9h11p9----9h11-9h11p9---9h11----------|
D--------12-12---------------------------------------12-12---|
A------------------------------------------------------------|
D------------------------------------------------------------|


  I (2:06) |
e----------|----------|----------|-----------------------------------|
B----------|--Repeat--|---Pre ---|-----------------------------------|
G----------|--Verse---|--Chorus--|---Chorus------ Guitar 3 fill -----|
D----------|----------|----------|-------------- On 4th Time thru ---|
A----------|----------|----------|-----------------------------------|
D----------|----------|----------|-----------------------------------|


 Guitar 3 fill- (Left channel)
 @ approx. 3:35sec.
e-------------------------------|
B-------------------------------|
G-------------------------------|
D---4---4--4--4---2-------------|
A---2---2--2--2---0------14/----|
D-------------------------------|

  ( @ 3:41)  6x                    | Ends w/ 2nd, 4th & 6th time
e----------------------------------|--------------------------|
B----------------------------------|--------------------------|
G----------------------------------|---9/11--11-11--11-11/12--|
D--0------10-9-----9-8--------8-7------x--x---x--x---x--x--x--|
A--0--0-0-10-9-0-0-9-8-0--0-0-8-7------7/-9---9--9---9--9/10--|
D--0--0-0-10-9-0-0-9-8-0--0-0-8-7------0----------------0-----|



 Ends w/ 1st, 3rd & 5th time
e----------------------|
B----------------------|
G---7/9--9-9--9-9/11---|
D---x-x--x-x--x-x--x---|
A---5/7--7-7--7-7/-9---|
D---0-----------0------|

    I.   |    II.    |    III.    |
e--------|-----------|------------|
B--------|-----------|-- Clean ---|
G--------|-----------|--- Tone ---|
D--------|-----------|------------|
A--------|-----------|------------|
D--------|-----------|------------|

WHAT'S THIS LIFE FOR

Tuning: E A D G B e


                  VERSE

  G    D         Dsus4   Bsus2      Csus2
e-3----------2-2h3p2-----------2--2-------3-------|
b-3-3-3----3---------3---------2--2---------3-----|
g-0-0----2-------------0-----4----------5-----5---|5x
d-0-0--0-------------------4----------5-----------|
a-2-2--------------------2----------3-----------0-|
e-3-3---------------------------------------------|


  G        D         Dsus4
e-----3----------2-2h3p2-2-----|
b-----3--3-----3-----------3---|
g-----0------2---------------0-|
d----0-----0-------------------|
a---2--------------------------|
e-3----------------------------|

  B5/E        Cmaj7/E
e-----------------------------|
b-0--0--0-0-0-0--0-0--0-0-0-0-|
g-4--4--4-4-4-5--5-5--5-5-5-5-|
d-4--4--4-4-4-5--5-5--5-5-5-5-|
a-2--2--2-2-2-3--3-3--3-3-3-3-|
e-0--0--0-0-0-0--0-0--0-0-0-0-|


             CHORUS
  G5           D5        B5           C5
e-----------------------------------------------|
b-----------------------------------------------|
g--------------7--7--7---4--4--4-4--4-5--5--5---|3x
d-5--5--5-5--5-7--7--7---4--4--4-4--4-5--5--5---|
a-5--5--5-5--5-5--5--5-0-2--2--2-2--2-3--3--3-0-|
e-3--3--3-3--3----------------------------------|

  G5           D5        B5           C5
e-----------------------------------------------|
b-----------------------------------------------|
g--------------7--7--7---4--4--4-4--4-5---------|
d-5--5--5-5--5-7--7--7---4--4--4-4--4-5---------|
a-5--5--5-5--5-5--5--5-0-2--2--2-2--2-3---------|
e-3--3--3-3--3----------------------------------|


                INTERLUDE
  G
e-3--3--3---3--3-3-3--3--3--3---3--3-3---|
b-3--3--3---3--3-3-3--3--3--3---3--3-3---|
g-0--0--0---0--0-0-0--0--0--0---0--0-0-0-|
d-0--0--0-X-0--0-0-0--0--0--0-X-0--0-0-0-|
a-2--2--2-X-2--2-2-2--2--2--2-X-2--2-2-0-|
e-3--3--3-X-3--3-3-3--3--3--3-X-3--3-3---|

  C        Cmaj7          Am       Asus2
e-0--0-0---0--0-0---0---0-0--0-0---0--0-0---0---0-|
b-1--1-1---0--0-0---1p0-0-1--1-1---0--0-0---1p0-0-|
g-0--0-0-0-0--0-0-0-0---0-2--2-2-2-2--2-2-2-2---2-|
d-2--2-2-2-2--2-2-2-2---2-2--2-2-2-2--2-2-2-2---2-|
a-3--3-3-3-3--3-3-3-3---3-0--0-0-0-0--0-0-0-0---0-|
e-------------------------------------------------|

  D/A      Dsus4          C        Cmaj7
e-2--2-2---3--3-3-2-2-2-2-0--0-0---0--0-0---0---0-|
b-3--3-3---3--3-3-3-3-3-3-1--1-1---0--0-0---1p0-0-|
g-2--2-2-2-2--2-2-2-2-2-2-0--0-0-0-0--0-0-0-0---0-|
d-0--0-0-0-0--0-0-0-0-0-0-2--2-2-2-2--2-2-2-2---2-|
a-0--0-0-0----0---0-0-0-0-3--3-3-3-3--3-3-3-3---3-|
e-------------------------------------------------|

  G
e-3--3-3--3----3--3-3-3-3-3----3--3--3-3----3-3-3-|
b-3--3-3--3----3--3-3-3-3-3----3--3--3-3----3-3-3-|
g-0--0-0--0--0-0--0-0-0-0-0--0-0--0--0-0--0-0-0-0-|
d-0--0-0--0--0-0--0-0-0-0-0--0-0--0--0-0--0-0-0-0-|
a-2--2-2--2--2-2--2-2-2-2-2--2-2--2--2-2--2-2-2-2-|
e-3--3-3--3--3-3--3-3-3-3-3--3-3--3--3-3--3-3-3-3-|

ONE

e------------------------------------------------------------|
B------------------------------------------------------------|
G------------------------------------------------------------|
D--------------------11--11-11-11--9--11/14(b)/--9--9-9-9-9--|
A-**7-7-7-6-6-6h7p0---0---0--0--0--0---0---------7--7-7-7-7--|
E---9-9-9-9-9-9---0-----------------------------(0)(0-0-0-0)-|
(** slight palm mute)


                                      First
e-------------------------------------Time---|
B-------------------------------------Only---|
G-------------------------------------|------|
D--9-9-9-9--00-----------------------'.'-----|
A--7-7-7-7--00--9--9-9-9-9--9-9-9-9/(14)-----|
E-(0-0-0-0)-----7--7-7-7-7--7-7-7-7/(12)-----|

  II
e---------------------------------------------------|
B---------------------------------------------------|
G---------------------------------------------------|
D---------------------11--11-11-11-9--11--11-11-11--|
A-**7-7-7-6-6-6h7p0----0---0--0--0-0---0---0--0--0--|
E---9-9-9-9-9-9-------------------------------------|

                                                     |  I      |
e----------------------------------------------------|---------|
B----------------------------------------------------|---------|
G----------------------------------------------------|-(sings)-|
D--9--9-9-9-9---9-9-9-9--00--------------------------|-(first)-|
A--7--7-7-7-7---7-7-7-7--00--9--9-9-9-9--9-9-9-9-00--|-(verse)-|
E-(0)(0-0-0-0)-(0-0-0-0)-----7--7-7-7-7--7-7-7-7-00--|---------|

  II  |  III
e-----|---------------------------------------------------------|
B-----|---------------------------------------------------------|
G-----|---------------------------------------------------------|
D-----|--------------------11--11-11-11--9--11--9--9--9-9-9-9---|
A-----|-**7-7-7-6-6-6h7p0---0---0--0--0--0---0--0--7--7-7-7-7---|
E-----|---9-9-9-9-9-9-----------------------------(0)(0-0-0-0)--|

e----------------------------------------|
B----------------------------------------|
G----------------------------------------|
D---9-9-9-9--00--------------------------|
A---7-7-7-7--00--9--9-9-9-9--9-9-9-9-00--|
E--(0-0-0-0)-----7--7-7-7-7--7-7-7-7-00--|

  IV
e------------------------------------------------------------|
B------------------------------------------------------------|
G------------------------------------------------------------|
D--------------------11--11-11-11--9-11-11-11-9--9--9-9-9-9--|
A-**7-7-7-6-6-6h7p0---0---0--0--0--0--0--0--0-0--7--7-7-7-7--|
E---9-9-9-9-9-9---------------------------------(0)(0-0-0-0)-|

e----------------------------------------|
B----------------------------------------|
G----------------------------------------|
D---9-9-9-9--00--------------------------|
A---7-7-7-7--00--9--9-9-9-9--9-9-9-9-00--|
E--(0-0-0-0)-----7--7-7-7-7--7-7-7-7-00--|

  V  (One- oh one...)
e---------------------------------------------------------|
B---------------------------------------------------------|
G---------------------------------------------------------|
D--------------------11--11-11-11--9--11--11-11-11/14(b)--|
A-**7-7-7-6-6-6h7p0---0---0--0--0--0---0---0--0--0--------|
E---9-9-9-9-9-9-------------------------------------------|


                                                     |  II  |
e----------------------------------------------------|------|
B----------------------------------------------------|------|
G----------------------------------------------------|------|
D--9--9-9-9-9---9-9-9-9--00--------------------------|------|
A--7--7-7-7-7---7-7-7-7--00--9--9-9-9-9--9-9-9-9-00--|------|
E-(0)(0-0-0-0)-(0-0-0-0)-----7--7-7-7-7--7-7-7-7-00--|------|


 Chorus  2x

e--------------------------|
B--------------------------|
G--4-----x-----6-----x-----|
D--4-----4-----6-----6-----|
A--2-----4-----4-----6-----|
E--x-----2-----x-----4-----|


  I   |  II     |  I   |  II  |  III  |  I        |  II  |
e-----|---------|------|------|-------|-----------|------|
B-----|---------|------|------|-------|--(GTR 1)--|------|
G-----|-(sings)-|------|------|-------|--(Cont.)--|------|
D-----|--(2nd)--|------|------|-------|-----------|------|
A-----|-(verse)-|------|------|-------|-----------|------|
E-----|---------|------|------|-------|-----------|------|


 Repeat Chorus (4x)


(3:01 sec.)
 Bridge 2x
e--------2~ ---0-------------4~ ---------------|
B--------2~ -----0-----------4~ ---------------|
G------4-----------3/ -----6-----------6----5--|
D----4-------------------6-----------6---------|
A--2-------------------4-----------6------6----|
E------------2-------------------4-------------|


e---------------------------------------------------------------

B-------4-------(4)-------4------5--------4------5--------------|
G---------4-------(4)-------4------4--------4------4--(7)/9-----|
D-**444-------------**444------4----**444------4-------x--x-----|
A-----------------------------------------------------(5)/7-----|
E---------------------------------------------------------------|
(**slight palm mute)


e------------------------------------------------------------|
B-------4-------(4)-------4------5--------4------5-----------|
G---------4-------(4)-------4------4--------4------4---9-----|
D-**444-------------**444------4----**444------4-------x-----|
A------------------------------------------------------7-----|
E------------------------------------------------------------|


           | 6x  (fade out)
e----------|----------------------------------------------------|
B----------|----------------------------------------------------|
G--Chorus--|--4------------------------6------------------------|
D----2x----|--4------------------------6------------------------|
A----------|--2---------4-----4---4----4---------6-----6---6----|
E----------|--x-----222---222---2---2--x-----444---444---4---4--|



 GUITAR 2   (distortion)

 (2:01-2:02)   | (2:06-2:09---------------------------------------|       (One- Oh one...)
e----softly----|--------------------------------------------------|
B--------------|--------------------------------------------------|
G------**------|----**---------------6~ --x-------**--------------|
D----666666----|--9999999---**-------6~ --7~ ---9999999---**------|
A----444444----|--7777777-9999999----4~ --7~ ---7777777-9999999---|
E--------------|----------7777777---------5~ -----------7777777---|

  (One- Oh one...)            (2:24) ^ = Harmonic
e------------------------------------------------------------|
B------------------------5^5^5^--9^--7^7^--6^--7^7^7^-7^-7^--|
G---6~ --x-------**------------------------------------------|
D---6~ --7~ ---9999999---------------------------------------|
A---4~ --7~ ---7777777---------------------------------------|
E--------5~ -------------------------------------------------|

           | Pick Slides @
e----------|(2:46-2:48, 2:50-2:52)---|
B----------|(2:55-2:56, & 2:59-3:00)-|
G--Chorus--|-------------------------|
D----2x----|-------------------------|
A----------|--x-\--------------------|
E----------|--x--\-------------------|
                  \

 (start at 3:01)  2x
e-----------------------------------|
B-----------------------------------|
G---4~ -----x-------6~ -----x-------|
D---4~ -----4~ -----6~ -----6~ -----|
A---2~ -----4~ -----4~ -----6~ -----|
E---x-------2~ -----x-------4~ -----|

 (start at 3:19)                       |
e---------------------------|----------|
B---------------------------|----------|
G---x-----x-----x-----9-----|--Chorus--|
D---9-----9-----7-----9-----|----2x----|
A---9-----9-----7-----7-----|----------|
E---7-----6-----5-----x-----|----------|



 6x (fade out)
e----------------------------------------------------|
B----------------------------------------------------|
G--4------------------------6------------------------|
D--4------------------------6------------------------|
A--2---------4-----4---4----4---------6-----6---6----|
E--x-----222---222---2---2--x-----444---444---4---4--|

That's it.ENJOY!!!
comments
print report bad tab
I want to post or [tab]
guest
You may want to rate the tab now too:
select rating
Please do not post tabs as comments. Select "correction" instead!