Oops, an error
Loading. Please wait.

Painted Skies Tab

ver1
ver1

Whole song

Interactive

More versions @911Tabs.com
335 views 6 this week
no commentswrite comment
1 2 3 4 5
excellent!
x 1
Autoscroll
+/-
esc
set tempo
stop
Contributor
Difficulty
Tuning
advanced
D# G# C# F# A# D#
Hey! There's an official Ultimate Guitar app which is ideal
for learning songs when you're away from computer. Get the app
WARNING: You are trying to view
                                    content from Ultimate-Guitar.com
                                    in an unauthorized application,
                                    which is prohibited.

                                    Please use an official Ultimate
                                    Guitar Tabs application for iPhone,
                                    iPad or Android to access legitimate
                                    chords, guitar, bass, and drum tabs
                                    from Ultimate-Guitar.com database.

                                    Type "ultimate guitar tabs" in Apple
                                    App Store's or Android Market's
                                    search to find the application.
                                Painted Skies                                   
                                Crimson Glory
http://profile.ultimate-guitar.com/AllJudasPriest


Guitar: Jon

      Q.                                                 E  E  E  E  E   
D#||--------------------------------------------------------0-----------|
A#||-----------------------------------------------------------0--------|
F#||--------------------------------------------------------------0-----|
C#||-----------------------------------------------------------------0--|
G#||-----------------------------------------------------2--------------|
D#||--0-----------------------------------------------------------------|


   E  E  E  E  H           Q.     E  E  E  E  E      E  E  E  E  E  E  E  E   
------0-----0--L--------|------------0-----------|------0-----0--0-----------|
--/5-----5--3--L--------|---------------0--------|--/5-----5--3-----3--------|
------------2--L--------|------------------0-----|------------2-----------4--|
------------------------|---------------------0--|---------------------------|
------------------------|---------2--------------|---------------------3-----|
------------------------|--0---------------------|---------------------------|


  Q.     E  E  E  E  E      E  E  E  E  H           Q.     E  E  E  E  E   
------------0-----------|------0-----0--L--------|------------0-----------|
---------------0--------|--/5-----5--3--L--------|---------------0--------|
------------------0-----|------------2--L--------|------------------0-----|
---------------------0--|------------------------|---------------------0--|
---------2--------------|------------------------|---------2--------------|
--0---------------------|------------------------|--0---------------------|


   E  E  E  E  E  E  E  E     Q.     E  E  E  E  E      E  E  E  E  H         
------0--------------------|------------0-----------|------0-----0--L--------|
--/5-----5-----0--------1--|---------------0--------|--/5-----5--3--L--------|
------------------0--------|------------------0-----|------------2--L--------|
---------------------------|---------------------0--|------------------------|
------------2--------3-----|---------2--------------|------------------------|
---------------------------|--0---------------------|------------------------|


  Q.     E  E  E  E  E      E  E  E  E  E  E  E  E     Q.     E  E  E  E  E   
------------0-----------|------0-----0--0-----------|------------0-----------|
---------------0--------|--/5-----5--3-----3--------|---------------0--------|
------------------0-----|------------2-----------4--|------------------0-----|
---------------------0--|---------------------------|---------------------0--|
---------2--------------|---------------------3-----|---------2--------------|
--0---------------------|---------------------------|--0---------------------|


   E  E  E  E  H           Q.     E  E  E  E  E      E  E  E  E  E  E  E  E   
------0-----0--L--------|------------0-----------|------0--------------------|
--/5-----5--3--L--------|---------------0--------|--/5-----5-----0--------1--|
------------2--L--------|------------------0-----|------------------0--------|
------------------------|---------------------0--|---------------------------|
------------------------|---------2--------------|------------2--------3-----|
------------------------|--0---------------------|---------------------------|


  Q.     E  E  E  E  E      E  E  E  E  H           Q.     E  E  E  E  E   
------------0-----------|------0-----0--L--------|------------0-----------|
---------------0--------|--/5-----5--3--L--------|---------------0--------|
------------------0-----|------------2--L--------|------------------0-----|
---------------------0--|------------------------|---------------------0--|
---------2--------------|------------------------|---------2--------------|
--0---------------------|------------------------|--0---------------------|


   E  E  E  E  E  E  Q       Q.     E  E  E  E  E      E  E  E  E  H         
------7-----5--5-----3----|------------0-----------|------0-----0--L--------|
--/8-----8--7-----7--5----|---------------0--------|--/5-----5--3--L--------|
--/7--------7--------5----|------------------0-----|------------2--L--------|
--------------------------|---------------------0--|------------------------|
--------------------------|---------2--------------|------------------------|
--------------------------|--0---------------------|------------------------|


  Q.     E  E  E  E  E      E  E  E   E  E  E  E  E   
------------0-----------|----------------------------|
---------------0--------|------3---------5--------3--|
------------------0-----|---------0---------0--------|
---------------------0--|----------------------------|
---------2--------------|--/5--------/5--------3-----|
--0---------------------|----------------------------|

                                                                |--3-|         
  W                                                  E  E  E  E  Q    H         
--2-----------------------------------------------|-------------------5--------|
--3-----------------------------------------------|-------------------7--------|
--2-----------------------------------------------|-------------------7--------|
--0-----------------------------------------------|-------------------7--------|
--------------------------------------------------|--5--5--5--5--5----5--------|
--------------------------------------------------|----------------------------|


  Q    E  Q    E  E  E     H        Q    Q       H        E  Q    E   
-------0----------------|---------------------|----------------------|
----------0-------------|---------------------|----------------------|
---------------------7--|--L--------9----7----|--5--------L--5----2--|
--2------------9--9--7--|--L--------9----7----|--5--------L--5----2--|
---------------7--7--5--|--L--------7----5----|--3--------L--3----0--|
------------------------|---------------------|----------------------|


  E  Q    S S Q    Q       Q    E  Q.      E  E     Q.     S S Q    Q     
------------------------|-------0----------------|-----------------------|
--------------3----3----|----------0-------------|------------------7----|
--L--2----x-x-5----5----|-----------------/9--7--|--L------x-x-9----7----|
--L--2----x-x-5----4----|-----------------/9--7--|--L------x-x-9----7----|
--L--0------------------|---------------------5--|--L----------7----5----|
------------------------|--0---------------------|-----------------------|


                                         |----3----|     
  Q    Q    E  Q    E     E  S S S S E   Q    Q    Q     
-----------------------|--------------------------------|
--5----5-------5-------|--------------------------------|
--5----5-------5-------|----------------/5----4---------|
--5----5-------5----5--|--L------5-4---------------7----|
--3----3-------3----5--|--L--5-7-----5------------------|
--------------------3--|--L-----------------------------|


  Q    E  Q.      E  E     Q.     S S Q    Q       H        E  Q    E   
-------0----------------|-----------------------|----------------------|
----------0-------------|-----------------------|----------------------|
------------------------|---------x-x-9----7----|--5--------L--5----2--|
-----------------/9--7--|--L------x-x-9----7----|--5--------L--5----2--|
-----------------/7--5--|--L----------7----5----|--3--------L--3----0--|
--0---------------------|-----------------------|----------------------|


  E  Q    S S Q    Q       Q    E  Q.      E  E     Q.     S S Q    Q     
------------------------|-------0----------------|-----------------------|
--------------3----3----|----------0-------------|-----------------------|
--L--2----x-x-5----5----|---------------------7--|---------x-x-9----7----|
--L--2----x-x-5----4----|-----------------/9--7--|--L------x-x-9----7----|
--L--0------------------|-----------------/7--5--|--L----------7----5----|
------------------------|--0---------------------|-----------------------|


  W                   Q.     Q.     Q       W                 
-------------------|---------------------|-------------------|
-------------------|---------------------|-------------------|
-------------------|---------------------|-------------------|
-------------------|---------------------|-------------------|
--3----------------|--2------3------2----|-------------------|
-------------------|---------------------|--0----------------|


   E  E  E  H        S S    W                    E  E  E  Q    E  S S E   
-------------------------|-------------------|---------------------------|
-------------------------|-------------------|---------------------------|
-------------------------|-------------------|---------------------------|
--/5--5--5--4--------2-2-|--2----------------|--/9--9--9--9----9--5-5-5--|
---------------------2-2-|--2----------------|---------------------------|
---------------------0-0-|--0----------------|---------------------------|

 Q.                                                 E  E  E  E  E   
--------------------------------------------------------0-----------|
-----------------------------------------------------------0--------|
--------------------------------------------------------------0-----|
-----------------------------------------------------------------0--|
-----------------------------------------------------2--------------|
--0-----------------------------------------------------------------|


   E  E  E  E  H           Q.     E  E  E  E  E      E  E  E  E  E  E  E  E   
------0-----0--L--------|------------0-----------|------0-----0--0-----------|
--/5-----5--3--L--------|---------------0--------|--/5-----5--3-----3--------|
------------2--L--------|------------------0-----|------------2-----------4--|
------------------------|---------------------0--|---------------------------|
------------------------|---------2--------------|---------------------3-----|
------------------------|--0---------------------|---------------------------|


  Q.     E  E  E  E  E      E  E  E  E  H           Q.     E  E  E  E  E   
------------0-----------|------0-----0--L--------|------------0-----------|
---------------0--------|--/5-----5--3--L--------|---------------0--------|
------------------0-----|------------2--L--------|------------------0-----|
---------------------0--|------------------------|---------------------0--|
---------2--------------|------------------------|---------2--------------|
--0---------------------|------------------------|--0---------------------|


   E  E  E  E  E  E  E  E     Q.     E  E  E  E  E      E  E  E  E  H         
------0--------------------|------------0-----------|------0-----0--L--------|
--/5-----5-----0--------1--|---------------0--------|--/5-----5--3--L--------|
------------------0--------|------------------0-----|------------2--L--------|
---------------------------|---------------------0--|------------------------|
------------2--------3-----|---------2--------------|------------------------|
---------------------------|--0---------------------|------------------------|


  Q.     E  E  E  E  E      E  E  E  E  E  E  Q       Q.     E  E  E  E  E   
------------0-----------|------7-----5--5-----3----|------------0-----------|
---------------0--------|--/8-----8--7-----7--5----|---------------0--------|
------------------0-----|--/7--------7--------5----|------------------0-----|
---------------------0--|--------------------------|---------------------0--|
---------2--------------|--------------------------|---------2--------------|
--0---------------------|--------------------------|--0---------------------|


   E  E  E  E  H           Q.     E  E  E  E  E      E  E  E   E  E  E  E  E   
------0-----0--L--------|------------0-----------|----------------------------|
--/5-----5--3--L--------|---------------0--------|------3---------5--------3--|
------------2--L--------|------------------0-----|---------0---------0--------|
------------------------|---------------------0--|----------------------------|
------------------------|---------2--------------|--/5--------/5--------3-----|
------------------------|--0---------------------|----------------------------|

                                                                 |--3-|         
  W                                                  E  E  E  E  Q    H         
--2-----------------------------------------------|-------------------5--------|
--3-----------------------------------------------|-------------------7--------|
--2-----------------------------------------------|-------------------7--------|
--0-----------------------------------------------|-------------------7--------|
--------------------------------------------------|--5--5--5--5--5----5--------|
--------------------------------------------------|----------------------------|


  Q    E  Q    E  E  E     H        Q    Q       H        E  Q    E   
-------0----------------|---------------------|----------------------|
----------0-------------|---------------------|----------------------|
---------------------7--|--L--------9----7----|--5--------L--5----2--|
--2------------9--9--7--|--L--------9----7----|--5--------L--5----2--|
---------------7--7--5--|--L--------7----5----|--3--------L--3----0--|
------------------------|---------------------|----------------------|


  E  Q    S S Q    Q       Q    E  Q.      E  E     Q.     S S Q    Q     
------------------------|-------0----------------|-----------------------|
--------------3----3----|----------0-------------|------------------7----|
--L--2----x-x-5----5----|-----------------/9--7--|--L------x-x-9----7----|
--L--2----x-x-5----4----|-----------------/9--7--|--L------x-x-9----7----|
--L--0------------------|---------------------5--|--L----------7----5----|
------------------------|--0---------------------|-----------------------|


                                         |----3----|     
  Q    Q    E  Q    E     E  S S S S E   Q    Q    Q     
-----------------------|--------------------------------|
--5----5-------5-------|--------------------------------|
--5----5-------5-------|----------------/5----4---------|
--5----5-------5----5--|--L------5-4---------------7----|
--3----3-------3----5--|--L--5-7-----5------------------|
--------------------3--|--L-----------------------------|


  Q    E  Q.      E  E     Q.     S S Q    Q       H        E  Q    E   
-------0----------------|-----------------------|----------------------|
----------0-------------|-----------------------|----------------------|
------------------------|---------x-x-9----7----|--5--------L--5----2--|
-----------------/9--7--|--L------x-x-9----7----|--5--------L--5----2--|
-----------------/7--5--|--L----------7----5----|--3--------L--3----0--|
--0---------------------|-----------------------|----------------------|


  E  Q    S S Q    Q       Q    E  Q.      E  E     Q.     S S Q    Q     
------------------------|-------0----------------|-----------------------|
--------------3----3----|----------0-------------|-----------------------|
--L--2----x-x-5----5----|---------------------7--|---------x-x-9----7----|
--L--2----x-x-5----4----|-----------------/9--7--|---------x-x-9----7----|
--L--0------------------|-----------------/7--5--|-------------7----5----|
------------------------|--0---------------------|-----------------------|


                                        |-----3-----|     
  H        E  Q    E     E  S S S S E   Q     Q     Q     
----------------------|----------------------19----17----|
----------------------|----------------------------------|
--5-----------5-------|----------------/5-----4----------|
--5-----------5----5--|--L------5-4-----------------7----|
--3-----------3----5--|--L--5-7-----5--------------------|
-------------------3--|--L-------------------------------|

   ^                                                  ^     ^   ^  ^  
   H                                                  Q     E   S  S  
--15------------------------------------------------/19----17--15-17-|
---------------------------------------------------------------------|
---------------------------------------------------------------------|
---------------------------------------------------------------------|
---------------------------------------------------------------------|
---------------------------------------------------------------------|


               ^     ^  ^     ^         ^     ^   ^   ^   ^   
                              |----3----|                     
  H        E   Q     S  S     H         Q     E   E   E   E   
--L--------L--14----19-17-|--19--------14----19--20--22--20--|
--------------------------|----------------------------------|
--------------------------|----------------------------------|
--------------------------|----------------------------------|
--------------------------|----------------------------------|
--------------------------|----------------------------------|


            ^   ^   ^   /1               ^   ^   ^   ^   
  H         E   E   E   E      H         E   E   E   E   
--L--------22--20--19--20--|---L--------22--20--19--20--|
---------------------------|----------------------------|
---------------------------|----------------------------|
---------------------------|----------------------------|
---------------------------|----------------------------|
---------------------------|----------------------------|


            ^   ^   ^        ^                    ^       ^       ^      
  H         E   E   Q        W                    Q.      Q.      Q      
--L--------20--19--17----|--19----------------|--10------12------10~----|
-------------------------|--------------------|-------------------------|
-------------------------|--------------------|-------------------------|
-------------------------|--------------------|-------------------------|
-------------------------|--------------------|-------------------------|
-------------------------|--------------------|-------------------------|


   ^         ^     ^   ^     ^  ^     ^         ^     ^     ^     ^    ^   
   |----3----|                        |----3----|     |--------3-------|   
   H         Q     E   Q     S  S     H         Q     Q     Q     E    E   
----------------------------------|---------------------------------------|
----------------------12----12-13-|--12--------------12----13----13s--15--|
--14--------14----14--------------|------------12-------------------------|
------------14--------------------|---------------------------------------|
----------------------------------|---------------------------------------|
----------------------------------|---------------------------------------|


   ^     ^     ^   ^   ^     ^     ^        ^         ^   ^   ^         
   |-------3-------|   |-----3-----|        |------3------|             
   Q     Q     E   E   Q     Q     Q        H         E   E   H         
----------------------14----15----17----|--15--------17--15--14--------|
--13----15----15--17--------------------|------------------------------|
----------------------------------------|------------------------------|
----------------------------------------|------------------------------|
----------------------------------------|------------------------------|
----------------------------------------|------------------------------|


            ^                      ^                      ^          
  H         H            H         H            H         H          
-----------22b--------|-----------22b--------|-----------24b--------|
-----------15b--------|-----------15b--------|-----------17b--------|
----------------------|----------------------|----------------------|
----------------------|----------------------|----------------------|
----------------------|----------------------|----------------------|
----------------------|----------------------|----------------------|


   ^     ^     ^     ^     ^     ^        ^             ^   ^    
   |-----3-----|     |-----3-----|                               
   Q     Q     Q     Q     Q     Q        H.            E   E    
--------------------------------------|--------------------22b--|
--17----------17----19----17----19----|--20------------19-------|
--------19----------------------------|-------------------------|
--------------------------------------|-------------------------|
--------------------------------------|-------------------------|
--------------------------------------|-------------------------|


            ^     ^          
  |----3----|                
  H         Q     H          
--L--------22----22~--------|
----------------------------|
----------------------------|
----------------------------|
----------------------------|
----------------------------|


   ^        ^  ^  ^  ^  ^  ^  ^  ^  ^  ^  ^  ^  ^  ^  ^  ^  ^  ^  ^  ^  
   Q.       T  T  T  T  T  T  T  T  T  T  T  T  T  T  T  T  T  T  T  T  
-----------------------------------------------------------------------|
--15b------17-20-17----17-20-17-15-17-20-17-20-17-15-12-15-12----12----|
--------------------15----------------------------------------14----12-|
-----------------------------------------------------------------------|
-----------------------------------------------------------------------|
-----------------------------------------------------------------------|


   ^  ^  ^  ^  ^  ^  ^  ^  ^  ^  ^       ^  ^  ^  ^  ^   ^   
                           |--3--|    |-----5-----|          
   T  T  T  T  T  T  T  T  S  S  S E  S  S  S  S  S  E   E   
------------------------------------------------------------|
--12----------------------14-15-14-L----14-15-14-15-14------|
-----14-12-14-12----12----14-16-14-L----14-16-14-16-14--12--|
-----------------14-----------------------------------------|
-----------------------12-----------------------------------|
------------------------------------------------------------|


   ^        ^ ^ ^     ^ ^   \1       ^ ^ ^ ^ ^ ^ ^ ^  ^ ^  ^ ^ ^ ^  ^  ^     
   Q     E  S S Q     S S   E     E  T T T T T T T T  S.T  S.T T T  E  E.    
-------------------------------|--------------------------------------------|
--------------------------<>5--|--L--7-8-7-5-3-5-3-5-17-3-17-5-3-5-17-------|
----------------4~-------------|--------------------------------------------|
--14\-------0-2-------0-2------|---------------------------------------2\---|
-------------------------------|--------------------------------------------|
-------------------------------|--------------------------------------------|


  ^  ^  ^ ^  ^  ^ ^   ^ ^  ^ ^  ^  ^  ^ ^  ^  ^  ^  ^  ^  ^  ^  ^  ^  
  |--3--| |--3--| |-3-| |--3-|  |--3--| |--3--|  |-----7-----|  7  7  
  S  S  S S  S  S E   S S  S S  S  S  S S  S  S  S  S  S  S  S  S  S  
---------------------------------------------------------------------|
------------------------------------------------12-13-15-13-12-13-12-|
---------------------------------------------------------------------|
------------------9----------9-10-------9-10-14----------------------|
----------9-10-12----12-9-10------12-10------------------------------|
--8-10-12------------------------------------------------------------|


   ^  ^  ^  ^   ^   ^  ^  ^   ^   ^  ^  ^  ^  ^  ^          
   7  7  7  7   7   7  7  7   7   7  7  7  7  7             
   S  S  S  S   S   S  S  S   S   S  S  S  S  S  H          
-----------------------------------------------------------|
--12-------------------------------------------------------|
-----14-12-11h-12p-11----11h-12p-11----11-12-14-14b--------|
----------------------14------------14---------------------|
-----------------------------------------------------------|
-----------------------------------------------------------|


  Q    E  Q    E  E  E   
-------0----------------|
----------0-------------|
--L------------------7--|
--2------------9--9--7--|
---------------7--7--5--|
------------------------|

  H                                              Q    Q     
-----------------------------------------------------------|
-----------------------------------------------------------|
--L----------------------------------------------9----7----|
--L----------------------------------------------9----7----|
--L----------------------------------------------7----5----|
-----------------------------------------------------------|


  H        E  Q    E     E  Q    S S Q    Q       Q    E  Q.      E  E   
----------------------|------------------------|-------0----------------|
----------------------|--------------3----3----|----------0-------------|
--5--------L--5----2--|--L--2----x-x-5----5----|-----------------/9--7--|
--5--------L--5----2--|--L--2----x-x-5----4----|-----------------/9--7--|
--3--------L--3----0--|--L--0------------------|---------------------5--|
----------------------|------------------------|--0---------------------|


  Q.     S S Q    Q       Q    Q    E  Q    E   
-----------------------|-----------------------|
------------------7----|--5----5-------5-------|
--L------x-x-9----7----|--5----5-------5-------|
--L------x-x-9----7----|--5----5-------5----5--|
--L----------7----5----|--3----3-------3----5--|
-----------------------|--------------------3--|


                 |----3----|                                                    
  E  S S S S E   Q    Q    Q       Q    E  Q    E  E  E     H        Q    Q     
--------------------------------|-------0----------------|---------------------|
--------------------------------|----------0-------------|---------------------|
----------------/5----4---------|---------------------7--|--L--------9----7----|
--L------5-4---------------7----|--2------------9--9--7--|--L--------9----7----|
--L--5-7-----5------------------|---------------7--7--5--|--L--------7----5----|
--L-----------------------------|------------------------|---------------------|


  H        E  Q    E     E  Q    S S Q    Q       Q    E  Q.      E  E   
----------------------|------------------------|-------0----------------|
----------------------|--------------3----3----|----------0-------------|
--5--------L--5----2--|--L--2----x-x-5----5----|-----------------/9--7--|
--5--------L--5----2--|--L--2----x-x-5----4----|-----------------/9--7--|
--3--------L--3----0--|--L--0------------------|---------------------5--|
----------------------|------------------------|--0---------------------|


  Q.     S S Q    Q       Q    Q    E  Q    E   
-----------------------|-----------------------|
------------------7----|--5----5-------5-------|
--L------x-x-9----7----|--5----5-------5-------|
--L------x-x-9----7----|--5----5-------5----5--|
--L----------7----5----|--3----3-------3----5--|
-----------------------|--------------------3--|


                 |----3----|     
  E  S S S S E   Q    Q    Q     
--------------------------------|
--------------------------------|
----------------/5----4---------|
--L------5-4---------------7----|
--L--5-7-----5------------------|
--L-----------------------------|

  H.                                                  E   E   
-------------------------------------------------------------|
--8-------------------------------------------------/12--10--|
-------------------------------------------------------------|
-------------------------------------------------------------|
-------------------------------------------------------------|
-------------------------------------------------------------|


  H         Q     Q         H        E   E   E   E     H         Q     Q     
-----------------------|----------------------------|-----------15----14----|
--L--------12----10----|--/13--------L--13--15--13--|--L--------------------|
-----------------------|----------------------------|-----------------------|
-----------------------|----------------------------|-----------------------|
-----------------------|----------------------------|-----------------------|
-----------------------|----------------------------|-----------------------|


   H.               E   E     H          Q     Q        W                 
--12-----------------------|------------------------|--12----------------|
----------------17g15--15--|--L--------/17----15----|--------------------|
---------------------------|------------------------|--------------------|
---------------------------|------------------------|--------------------|
---------------------------|------------------------|--------------------|
---------------------------|------------------------|--------------------|


   W                    W                     W                 
--------------------|--12-----------------|---L----------------|
--15----------------|--12h----------------|--11----------------|
--------------------|---------------------|--------------------|
--------------------|---------------------|--------------------|
--------------------|---------------------|--------------------|
--------------------|---------------------|--------------------|


  W                  
--L----------------||
--L----------------||
-------------------||
-------------------||
-------------------||
-------------------||

Guitar: Ben
      ^                                                          
      H                                                H         
D#||--0---------------------------------------------------------|
A#||--0---------------------------------------------------------|
F#||--0---------------------------------------------------------|
C#||--0---------------------------------------------------------|
G#||--2---------------------------------------------------------|
D#||--0---------------------------------------------------------|


  v                                                                       
  H        H           Q.     E  E  E  E  E      E  E  E  E  E  E  E  E   
--0-----------------|------------0-----------|------0-----0--0-----------|
--3-----------------|---------------0--------|--/5-----5--3-----3--------|
--2-----------------|------------------0-----|------------2-----------4--|
--0-----------------|---------------------0--|---------------------------|
--0-----------------|---------2--------------|---------------------3-----|
--------------------|--0---------------------|---------------------------|


  ^                    v                                           
  H        H           H        H           Q.     E  E  E  E  E   
--0-----------------|--2-----------------|------------0-----------|
--0-----------------|--3-----------------|---------------0--------|
--0-----------------|--2-----------------|------------------0-----|
--0-----------------|--0-----------------|---------------------0--|
--2-----------------|--0-----------------|---------2--------------|
--0-----------------|--------------------|--0---------------------|


   E  E  E  E  E  E  E  E     Q.     E  E  E  E  E      E  E  E  E  H         
------0-----0--0-----------|------------0-----------|------0-----0--L--------|
--/5-----5--3-----3--------|---------------0--------|--/5-----5--3--L--------|
------------2-----------4--|------------------0-----|------------2--L--------|
---------------------------|---------------------0--|------------------------|
---------------------3-----|---------2--------------|------------------------|
---------------------------|--0---------------------|------------------------|


  Q.     E  E  E  E  E      E  E  E  E  E  E  E  E     Q.     E  E  E  E  E   
------------0-----------|------0-----0--0-----------|------------0-----------|
---------------0--------|--/5-----5--3-----3--------|---------------0--------|
------------------0-----|------------2-----------4--|------------------0-----|
---------------------0--|---------------------------|---------------------0--|
---------2--------------|---------------------3-----|---------2--------------|
--0---------------------|---------------------------|--0---------------------|


   E  E  E  E  H           Q.     E  E  E  E  E      E  E  E  E  E  E  E  E   
------0-----0--L--------|------------0-----------|------0--------------------|
--/5-----5--3--L--------|---------------0--------|--/5-----5-----0--------1--|
------------2--L--------|------------------0-----|------------------0--------|
------------------------|---------------------0--|---------------------------|
------------------------|---------2--------------|------------2--------3-----|
------------------------|--0---------------------|---------------------------|


  Q.     E  E  E  E  E      E  E  E  E  H           Q.     E  E  E  E  E   
------------0-----------|------0-----0--L--------|------------0-----------|
---------------0--------|--/5-----5--3--L--------|---------------0--------|
------------------0-----|------------2--L--------|------------------0-----|
---------------------0--|------------------------|---------------------0--|
---------2--------------|------------------------|---------2--------------|
--0---------------------|------------------------|--0---------------------|


   E  E  E  E  E  E  E  E     Q.     E  E  E  E  E      E  E  E  E  H         
------0-----0--0-----------|------------0-----------|------0-----0--L--------|
--/5-----5--3-----3--------|---------------0--------|--/5-----5--3--L--------|
------------2-----------4--|------------------0-----|------------2--L--------|
---------------------------|---------------------0--|------------------------|
---------------------3-----|---------2--------------|------------------------|
---------------------------|--0---------------------|------------------------|


  Q.     E  E  E  E  E      E  E  E  E  E  E  E  E   
------------0-----------|------0--------------------|
---------------0--------|--/5-----5-----0--------1--|
------------------0-----|------------------0--------|
---------------------0--|---------------------------|
---------2--------------|------------2--------3-----|
--0---------------------|---------------------------|

                                                              |--3-|         
  W                                               E  E  E  E  Q    H         
--2--------------------------------------------|-------------------5--------|
--3--------------------------------------------|-------------------7--------|
--2--------------------------------------------|-------------------7--------|
--0--------------------------------------------|-------------------7--------|
--0--------------------------------------------|--5--5--5--5--5----5--------|
-----------------------------------------------|----------------------------|


  Q    E  Q    E  E  E     H        Q    Q       H        E  Q    E   
-------0----------------|---------------------|----------------------|
----------0-------------|---------------------|----------------------|
---------------------7--|--L--------9----7----|--5--------L--5----2--|
--2------------9--9--7--|--L--------9----7----|--5--------L--5----2--|
---------------7--7--5--|--L--------7----5----|--3--------L--3----0--|
------------------------|---------------------|----------------------|


  E  Q    S S Q    Q       Q    E  Q.      E  E     Q.     S S Q    Q     
------------------------|-------0----------------|-----------------------|
--------------3----3----|----------0-------------|------------------7----|
--L--2----x-x-5----5----|------------------------|---------x-x-9----7----|
--L--2----x-x-5----4----|-----------------/9--7--|--L------x-x-9----7----|
--L--0------------------|-----------------/7--5--|--L----------7----5----|
------------------------|--0---------------------|-----------------------|


                                         |----3----|     
  Q    Q    E  Q    E     E  S S S S E   Q    Q    Q     
-----------------------|--------------------------------|
--5----5-------5-------|--------------------------------|
--5----5-------5-------|----------------/2--------------|
--5----5-------5----5--|--L------5-4----------5----4----|
--3----3-------3----5--|--L--5-7-----5------------------|
--------------------3--|--L-----------------------------|


  Q     H         E  E     Q.     E   Q    Q       H        E  Q    E   
------------------------|-----------------------|----------------------|
------------------------|------------------7----|--5--------L--5-------|
------------------------|---------x--/9----7----|--5--------L--5----2--|
-------/2--------/9--7--|--L------x--/9----7----|--5--------L--5----2--|
-----------------/7--5--|--L--------------------|--3--------L--3----0--|
--0---------------------|-----------------------|----------------------|


  E  Q    S S Q    Q       Q    E  Q.      E  E     H         Q    Q     
------------------------|-------0----------------|----------------------|
------------------------|----------0----------7--|--L-------------------|
--L--2----x-x-----------|---------------------7--|--L--------/9----7----|
--L--2----x-x-5----4----|-----------------/9--7--|--L--------/9----7----|
--L--0--------5----5----|-----------------/7--5--|--L--------/7----5----|
------------------------|--0---------------------|----------------------|


  W                   Q.     Q.     Q       W                 
-------------------|---------------------|-------------------|
-------------------|---------------------|-------------------|
-------------------|---------------------|-------------------|
--5----------------|--5------5------5----|-------------------|
--3----------------|--2------3------2----|--2----------------|
--3----------------|---------------------|--0----------------|


   E  E  E  H        E     W                    E  E  E  E  E  E  E  E   
------------------------|-------------------|---------------------------|
------------------------|-------------------|---------------------------|
------------------------|-------------------|---------------------------|
--/2--2--2--------------|-------------------|--/2--2--2-----------------|
------------5-----------|-------------------|------------2--2--2--------|
---------------------0--|--0----------------|---------------------5--3--|

  Q.                                               E  E  E  E  E   
------------------------------------------------------0-----------|
---------------------------------------------------------0--------|
------------------------------------------------------------0-----|
---------------------------------------------------------------0--|
---------------------------------------------------2--------------|
--0---------------------------------------------------------------|


   E  E  E  E  H           Q.     E  E  E  E  E      E  E  E  E  E  E  E  E   
------0-----0--L--------|------------0-----------|------0-----0--0-----------|
--/5-----5--3--L--------|---------------0--------|--/5-----5--3-----3--------|
------------2--L--------|------------------0-----|------------2-----------4--|
------------------------|---------------------0--|---------------------------|
------------------------|---------2--------------|---------------------3-----|
------------------------|--0---------------------|---------------------------|


  Q.     E  E  E  E  E      E  E  E  E  H           Q.     E  E  E  E  E   
------------0-----------|------0-----0--L--------|------------0-----------|
---------------0--------|--/5-----5--3--L--------|---------------0--------|
------------------0-----|------------2--L--------|------------------0-----|
---------------------0--|------------------------|---------------------0--|
---------2--------------|------------------------|---------2--------------|
--0---------------------|------------------------|--0---------------------|


   E  E  E  E  E  E  E  E     Q.     E  E  E  E  E      E  E  E  E  H         
------0--------------------|------------0-----------|------0-----0--L--------|
--/5-----5-----0--------1--|---------------0--------|--/5-----5--3--L--------|
------------------0--------|------------------0-----|------------2--L--------|
---------------------------|---------------------0--|------------------------|
------------2--------3-----|---------2--------------|------------------------|
---------------------------|--0---------------------|------------------------|


  Q.     E  E  E  E  E      E  E  E  E  E  E  E  E     Q.     E  E  E  E  E   
------------0-----------|------0-----0--0-----------|------------0-----------|
---------------0--------|--/5-----5--3-----3--------|---------------0--------|
------------------0-----|------------2-----------4--|------------------0-----|
---------------------0--|---------------------------|---------------------0--|
---------2--------------|---------------------3-----|---------2--------------|
--0---------------------|---------------------------|--0---------------------|


   E  E  E  E  H           Q.     E  E  E  E  E      E  E  E  E  E  E  E  E   
------0-----0--L--------|------------0-----------|------0--------------------|
--/5-----5--3--L--------|---------------0--------|--/5-----5-----0--------1--|
------------2--L--------|------------------0-----|------------------0--------|
------------------------|---------------------0--|---------------------------|
------------------------|---------2--------------|------------2--------3-----|
------------------------|--0---------------------|---------------------------|


  W                 
--2----------------|
--3----------------|
--2----------------|
--0----------------|
--0----------------|
-------------------|

                                                        |--3-|         
  E                                            E  E  E  Q    H         
-------------------------------------------------------------5--------|
-------------------------------------------------------------7--------|
-------------------------------------------------------------7--------|
-------------------------------------------------------------7--------|
--5--------------------------------------------5--5--5--5----5--------|
----------------------------------------------------------------------|


  Q    E  Q    E  E  E     H        Q    Q       H        E  Q    E   
-------0----------------|---------------------|----------------------|
----------0-------------|---------------------|----------------------|
---------------------7--|--L--------9----7----|--5--------L--5----2--|
--2------------9--9--7--|--L--------9----7----|--5--------L--5----2--|
---------------7--7--5--|--L--------7----5----|--3--------L--3----0--|
------------------------|---------------------|----------------------|


  E  Q    S S Q    Q       Q    E  Q.      E  E     Q.     S S Q    Q     
------------------------|-------0----------------|-----------------------|
--------------3----3----|----------0-------------|------------------7----|
--L--2----x-x-5----5----|------------------------|---------x-x-9----7----|
--L--2----x-x-5----4----|-----------------/9--7--|--L------x-x-9----7----|
--L--0------------------|-----------------/7--5--|--L----------7----5----|
------------------------|--0---------------------|-----------------------|


                                         |----3----|     
  Q    Q    E  Q    E     E  S S S S E   Q    Q    Q     
-----------------------|--------------------------------|
--5----5-------5-------|--------------------------------|
--5----5-------5-------|----------------/2--------------|
--5----5-------5----5--|--L------5-4----------5----4----|
--3----3-------3----5--|--L--5-7-----5------------------|
--------------------3--|--L-----------------------------|


  Q     H         E  E     Q.     E   Q    Q       H        E  Q    E   
------------------------|-----------------------|----------------------|
------------------------|------------------7----|--5--------L--5-------|
------------------------|---------x--/9----7----|--5--------L--5----2--|
-------/2--------/9--7--|--L------x--/9----7----|--5--------L--5----2--|
-----------------/7--5--|--L--------------------|--3--------L--3----0--|
--0---------------------|-----------------------|----------------------|


  E  Q    S S Q    Q       Q    E  Q.      E  E     Q.     S S Q    Q     
------------------------|-------0----------------|-----------------------|
------------------------|----------0----------7--|-----------------------|
--L--2----x-x-----------|---------------------7--|---------x-x-----------|
--L--2----x-x-5----4----|-----------------/9--7--|---------x-x-2----4----|
--L--0--------5----5----|-----------------/7--5--|-----------------------|
------------------------|--0---------------------|-----------------------|


                                        |-----3-----|     
  H        E  Q    E     E  S S S S E   Q     Q     Q     
----------------------|----------------------15----14----|
----------------------|----------------------------------|
--------------5-------|----------------/2-----0----------|
--5-----------5----5--|--L------5-4-----------------4----|
--3-----------3----5--|--L--5-7-----5--------------------|
-------------------3--|--L-------------------------------|

   H                                           Q     E   S  S  
--12-----------------------------------------/15----14--12-14-|
--------------------------------------------------------------|
--------------------------------------------------------------|
--------------------------------------------------------------|
--------------------------------------------------------------|
--------------------------------------------------------------|


                              |----3----|                      
  H        E   Q     S  S     H         Q     E   E   E   E    
--L--------L--10----15-14-|--15--------10----15--17--19--17b--|
--------------------------|-----------------------------------|
--------------------------|-----------------------------------|
--------------------------|-----------------------------------|
--------------------------|-----------------------------------|
--------------------------|-----------------------------------|


  H         E   E   E   E      H         E   E   E   E   
--L--------19--17--15--17b--|--L--------19--17--15--17--|
----------------------------|---------------------------|
----------------------------|---------------------------|
----------------------------|---------------------------|
----------------------------|---------------------------|
----------------------------|---------------------------|


  H         E   E   Q        W                    Q.      Q.      Q      
--L--------17--15--14----|--16----------------|--14------15------14~----|
-------------------------|--------------------|-------------------------|
-------------------------|--------------------|-------------------------|
-------------------------|--------------------|-------------------------|
-------------------------|--------------------|-------------------------|
-------------------------|--------------------|-------------------------|


  E  E  E  E  H         
-----------------------|
-----------------------|
--------------2--------|
--------------2--------|
--0--0-----0--0--------|
-----------------------|

  E                                            E  E  E  E.  E.  S S  
--------------------------------------------------------------------|
--------------------------------------------------------------------|
--------------------------------------------------------------------|
--------------------------------------------------------0---2---2-4-|
--2--------------------------------------------2-----2--2---3---3-5-|
--------------------------------------------------------------------|


  E.  E.  E  E.  E.  E     H        H           E  E  E  E  H         
------------------------|--------------------|-----------------------|
------------------------|--------------------|-----------------------|
----------0--2---4---5--|--0-----------------|-----------------------|
--2---3---2--3---5---7--|--0--------4--------|--2--2-----2--2--------|
--3---5-----------------|-----------5--------|-----------------------|
------------------------|--------------------|--0--0-----0-----------|


  E  E  E  E  H           E  E  E  E  H         
-----------------------|-----------------------|
-----------------------|-----------------------|
-----------------------|-----------------------|
--4--4-----4--4--------|--5--5-----5--5--------|
-----------------------|-----------------------|
--0--0-----0-----------|--0--0-----0-----------|


  |----3----|    |----3----|                                                    
  Q    Q    Q    Q    Q    Q       Q    E  Q    E  E  E     H        Q    Q     
--------------------------------|-------0----------------|---------------------|
--------------------------------|----------0-------------|---------------------|
--------------------------------|---------------------7--|--L--------9----7----|
--2----0----2----4----2----4----|--2------------9--9--7--|--L--------9----7----|
--------------------------------|---------------7--7--5--|--L--------7----5----|
--------------------------------|------------------------|---------------------|


  H        E  Q    E     E  Q    S S Q    Q       Q    E  Q.      E  E   
----------------------|------------------------|-------0----------------|
----------------------|------------------------|----------0-------------|
--5--------L--5----2--|--L--2----x-x-----------|-----------------/9--7--|
--5--------L--5----2--|--L--2----x-x-5----4----|-----------------/9--7--|
--3--------L--3----0--|--L--0--------5----5----|---------------------5--|
----------------------|------------------------|--0---------------------|


  Q.     S S Q    Q       Q    Q    E  Q    E   
-----------------------|-----------------------|
------------------7----|--5----5-------5-------|
--L------x-x-9----7----|--5----5-------5-------|
--L------x-x-9----7----|--5----5-------5----5--|
--L----------7----5----|--3----3-------3----5--|
-----------------------|--------------------3--|


                 |----3----|                                                    
  E  S S S S E   Q    Q    Q       Q    E  Q    E  E  E     H        Q    Q     
--------------------------------|-------0----------------|---------------------|
--------------------------------|----------0-------------|---------------------|
----------------/5----4---------|---------------------7--|--L--------9----7----|
--L------5-4---------------7----|--2------------9--9--7--|--L--------9----7----|
--L--5-7-----5------------------|---------------7--7--5--|--L--------7----5----|
--L-----------------------------|------------------------|---------------------|


  H        E  Q    E     E  Q    S S Q    Q       Q    E  Q.      E  E   
----------------------|------------------------|-------0----------------|
----------------------|------------------------|----------0-------------|
--5--------L--5----2--|--L--2----x-x-----------|-----------------/9--7--|
--5--------L--5----2--|--L--2----x-x-5----4----|-----------------/9--7--|
--3--------L--3----0--|--L--0--------5----5----|---------------------5--|
----------------------|------------------------|--0---------------------|


  Q.     S S Q    Q       Q    Q    E  Q    E   
-----------------------|-----------------------|
------------------7----|--5----5-------5-------|
--L------x-x-9----7----|--5----5-------5-------|
--L------x-x-9----7----|--5----5-------5----5--|
--L----------7----5----|--3----3-------3----5--|
-----------------------|--------------------3--|


                 |----3----|                                                    
  E  S S S S E   Q    Q    Q       Q    E  Q    E  E  E     H        Q    Q     
--------------------------------|-------0----------------|---------------------|
--------------------------------|----------0-------------|---------------------|
----------------/5----4---------|---------------------7--|--L--------9----7----|
--L------5-4---------------7----|--2------------9--9--7--|--L--------9----7----|
--L--5-7-----5------------------|---------------7--7--5--|--L--------7----5----|
--L-----------------------------|------------------------|---------------------|


  H        E  Q    E     E  Q    S S Q    Q       Q    E  Q.      E  E   
----------------------|------------------------|-------0----------------|
----------------------|------------------------|----------0-------------|
--5--------L--5----2--|--L--2----x-x-----------|-----------------/9--7--|
--5--------L--5----2--|--L--2----x-x-5----4----|-----------------/9--7--|
--3--------L--3----0--|--L--0--------5----5----|---------------------5--|
----------------------|------------------------|--0---------------------|


  Q.     S S Q    Q       Q    Q    E  Q    E   
-----------------------|-----------------------|
------------------7----|--5----5-------5-------|
--L------x-x-9----7----|--5----5-------5-------|
--L------x-x-9----7----|--5----5-------5----5--|
--L----------7----5----|--3----3-------3----5--|
-----------------------|--------------------3--|


                 |----3----|     
  E  S S S S E   Q    Q    Q     
--------------------------------|
--------------------------------|
----------------/5----4---------|
--L------5-4---------------7----|
--L--5-7-----5------------------|
--L-----------------------------|

  H.                                          E  E     H        Q    Q     
----------------------------------------------------|---------------------|
--5------------------------------------------/8--7--|--L--------8----7----|
----------------------------------------------------|---------------------|
----------------------------------------------------|---------------------|
----------------------------------------------------|---------------------|
----------------------------------------------------|---------------------|


  H        E  E    E   E     H          Q    Q       H.               E   E   
--------------------------|-----------/10----8----|--7-----------------------|
--8--------L--8s--12--10--|--L--------------------|---------------10g12--10--|
--------------------------|-----------------------|--------------------------|
--------------------------|-----------------------|--------------------------|
--------------------------|-----------------------|--------------------------|
--------------------------|-----------------------|--------------------------|


  H         Q     Q       W                   Q.     Q.     Q     
-----------------------|-------------------|---------------------|
--L--------12----10----|--8----------------|--7------8------7----|
-----------------------|-------------------|---------------------|
-----------------------|-------------------|---------------------|
-----------------------|-------------------|---------------------|
-----------------------|-------------------|---------------------|


  W                   W                   W                  
-------------------|-------------------|-------------------||
-------------------|-------------------|-------------------||
--9----------------|--L----------------|--L----------------||
-------------------|-------------------|-------------------||
-------------------|-------------------|-------------------||
-------------------|-------------------|-------------------||
comments
We did not receive enough feedback on this tab! Please rate:
print report bad tab
1 2 3 4 5
I want to post or [tab]
guest
You may want to rate the tab now too:
select rating
Please do not post tabs as comments. Select "correction" instead!