Oops, an error
Loading. Please wait.

World Below Tab

328 views 1 this week
no commentswrite comment
1 2 3 4 5
please rate
Autoscroll
+/-
esc
set tempo
stop
Contributor
Tuning
D G C F A D
WARNING: You are trying to view
                                    content from Ultimate-Guitar.com
                                    in an unauthorized application,
                                    which is prohibited.

                                    Please use an official Ultimate
                                    Guitar Tabs application for iPhone,
                                    iPad or Android to access legitimate
                                    chords, guitar, bass, and drum tabs
                                    from Ultimate-Guitar.com database.

                                    Type "ultimate guitar tabs" in Apple
                                    App Store's or Android Market's
                                    search to find the application.
#----------------------------------PLEASE NOTE---------------------------------#
#This file is the author's own work and represents their interpretation of the #
#song. You may only use this file for private study, scholarship, or research. #
#------------------------------------------------------------------------------#

WORLD BELOW
As recorded by The Crown
(From the 2002 Album CROWNED UNHOLY)

Transcribed by Woutjinho & Hopkins WFG
        

Words and Music by The Crown
Arranged by The Crown

Gtr I (D G C F A D) - 'Guitar 1'
Gtr II (D G C F A D) - 'Guitar 2'
Gtr III (D G C F A D) - 'Solo Guitar'

 Intro
  Q=125
          D5E5/B        D5E5/B        D5E5/B         D5/E5/B
 4/4
  Gtr I
          |3|           |3|           |3|            |3-|
  q  H    Q E   q  H    Q E   q  H    Q E   q   H    Q  E
|-------------|-------------|-------------|---------------|
|-------------|-------------|-------------|---------------|
|-------------|-------------|-------------|---------------|
|---------0-2-|---------0-2-|---------0-2-|----------0--2-|
|---------0-2-|---------0-2-|---------0-2-|----------0--2-|
|-0-----------|-0-----------|-0-----------|-0-------------|
|
| Gtr II
| W             W             W             H.       Q
|-------------|-------------|-------------|---------------|
|-------------|-------------|-------------|---------------|
|-------------|-------------|-------------|---------------|
|-------------|-------------|-------------|---------------|
|-------------|-------------|-------------|----------7\---|
|-------------|-------------|-------------|----------7\---|


  E5
                    |-3-|                     |-3-|
  q     H           Q   E   q     H           Q   E
|-------------------------|-------------------------|
|-------------------------|-------------------------|
|-------------------------|-------------------------|
|-------------------0---2-|-------------------0---2-|
|-------------------0---2-|-------------------0---2-|
|-0-----------------------|-0-----------------------|
|
| |-3-| |-3-| |-3-| |-3-|   |-3-| |-3-| |-3-| |-3-|
| E E E E E E E E E E E E   E E E E E E E E E E E E
|-------------------------|-------------------------|
|-------------------------|-------------------------|
|-------------------------|-------------------------|
|-------------------------|-------------------------|
|-2-2-2-2-2-2-2-2-2-2-2-2-|-2-2-2-2-2-2-2-2-2-2-2-2-|
|-0-0-0-0-0-0-0-0-0-0-0-0-|-0-0-0-0-0-0-0-0-0-0-0-0-|


                                               C5Bb5/F
                    |-3-|                      |3|
  q     H           Q   E   q     Q      Q     Q E
|-------------------------|------------------------|
|-------------------------|------------------------|
|-------------------------|------------------------|
|-------------------0---2-|------------------------|
|-------------------0---2-|-------------/7-----3-1-|
|-0-----------------------|-0-----------/7-----3-1-|
|
| |-3-| |-3-| |-3-| |-3-|   |-3-| |-3-|  |-3-| |3|
| E E E E E E E E E E E E   E E E E E E  E E E Q E
|-------------------------|------------------------|
|-------------------------|------------------------|
|-------------------------|------------------------|
|-------------------------|------------------------|
|-2-2-2-2-2-2-2-2-2-2-2-2-|-2-2-2-2-2-2--2-2-2-3-1-|
|-0-0-0-0-0-0-0-0-0-0-0-0-|-0-0-0-0-0-0--0-0-0-3-1-|


   Pre-Verse
    E5                D5E5/BE5                D5E5/BE5
    Gtrs I, II
    |-3-| |-3-| |-3-| |3|   |-3-| |-3-| |-3-| |3|
    E E E E E E E E E Q E   E E E E E E E E E Q E
||------------------------|-----------------------|
||o-----------------------|-----------------------|
||------------------------|-----------------------|
||--------------------0-2-|-------------------0-2-|
||o-2-2-2-2-2-2-2-2-2-0-2-|-2-2-2-2-2-2-2-2-2-0-2-|
||--0-0-0-0-0-0-0-0-0-----|-0-0-0-0-0-0-0-0-0-----|


                    D5E5/BE5                C5Bb5/F
  |-3-| |-3-| |-3-| |3|   |-3-| |-3-| |-3-| |3|
  E E E E E E E E E Q E   E E E E E E E E E Q E
|-----------------------|--------------------------||
|-----------------------|-------------------------o||
|-----------------------|--------------------------||
|-------------------0-2-|--------------------------||
|-2-2-2-2-2-2-2-2-2-0-2-|-2-2-2-2-2-2-2-2-2-3-1---o||
|-0-0-0-0-0-0-0-0-0-----|-0-0-0-0-0-0-0-0-0-3-1----||


  E5                D5E5/BE5                D5E5/BE5
  |-3-| |-3-| |-3-| |3|   |-3-| |-3-| |-3-| |3|
  E E E E E E E E E Q E   E E E E E E E E E Q E
|-----------------------|-----------------------|
|-----------------------|-----------------------|
|-9-9-9-9-9-9-9-9-9-----|-9-9-9-9-9-9-9-9-9-----|
|-9-9-9-9-9-9-9-9-9-0-2-|-9-9-9-9-9-9-9-9-9-0-2-|
|-7-7-7-7-7-7-7-7-7-0-2-|-7-7-7-7-7-7-7-7-7-0-2-|
|-----------------------|-----------------------|


                    D5E5/BE5                C5Bb5/F
  |-3-| |-3-| |-3-| |3|   |-3-| |-3-| |-3-| |3|
  E E E E E E E E E Q E   E E E E E E E E E Q E
|-----------------------|--------------------------|
|-----------------------|--------------------------|
|-9-9-9-9-9-9-9-9-9-----|-9-9-9-9-9-9-9-9-9--------|
|-9-9-9-9-9-9-9-9-9-0-2-|-9-9-9-9-9-9-9-9-9--------|
|-7-7-7-7-7-7-7-7-7-0-2-|-7-7-7-7-7-7-7-7-7-3-1----|
|-----------------------|-------------------3-1----|


  E5                D5E5/BE5                D5E5/BE5
  Gtr I
  |-3-| |-3-| |-3-| |3|   |-3-| |-3-| |-3-| |3|
  E E E E E E E E E Q E   E E E E E E E E E Q E
|-------------------5-7-|-------------------5-7-|
|-5-5-5-5-5-5-5-5-5-5-7-|-5-5-5-5-5-5-5-5-5-5-7-|
|-4-4-4-4-4-4-4-4-4-----|-4-4-4-4-4-4-4-4-4-----|
|-----------------------|-----------------------|
|-----------------------|-----------------------|
|-----------------------|-----------------------|
|
| Gtr II
| |-3-| |-3-| |-3-| |3|   |-3-| |-3-| |-3-| |3|
| E E E E E E E E E Q E   E E E E E E E E E Q E
|-----------------------|-----------------------|
|-----------------------|-----------------------|
|-9-9-9-9-9-9-9-9-9-----|-9-9-9-9-9-9-9-9-9-----|
|-9-9-9-9-9-9-9-9-9-0-2-|-9-9-9-9-9-9-9-9-9-0-2-|
|-7-7-7-7-7-7-7-7-7-0-2-|-7-7-7-7-7-7-7-7-7-0-2-|
|-----------------------|-----------------------|


                    D5E5/BE5                C5/Bb5/F
  |-3-| |-3-| |-3-| |3|   |-3-| |-3-| |-3-| |3-|
  E E E E E E E E E Q E   E E E E E E E E E Q  E
|-------------------5-7-|---------------------------|
|-5-5-5-5-5-5-5-5-5-5-7-|-5-5-5-5-5-5-5-5-5-5\------|
|-4-4-4-4-4-4-4-4-4-----|-4-4-4-4-4-4-4-4-4-4\------|
|-----------------------|---------------------------|
|-----------------------|---------------------------|
|-----------------------|---------------------------|
|
| |-3-| |-3-| |-3-| |3|   |-3-| |-3-| |-3-| |3-|
| E E E E E E E E E Q E   E E E E E E E E E Q  E
|-----------------------|---------------------------|
|-----------------------|---------------------------|
|-9-9-9-9-9-9-9-9-9-----|-9-9-9-9-9-9-9-9-9---------|
|-9-9-9-9-9-9-9-9-9-0-2-|-9-9-9-9-9-9-9-9-9---------|
|-7-7-7-7-7-7-7-7-7-0-2-|-7-7-7-7-7-7-7-7-7-3--1----|
|-----------------------|-------------------3--1----|


    E5        F#5         G5            F#G5F#5
    Gtrs I, II
    |---3---| |---3---|   |---3---| |---3---|
    Q E E E E Q E E E E   Q E E E E Q E E E E
||----------------------|---------------------|
||o---------------------|---------------------|
||----------------------|---------------------|
||--2-2-2-2-2-4-4-4-4-4-|-5-5-5-5-5-5---------|
||o-2-2-2-2-2-4-4-4-4-4-|-5-5-5-5-5-5-5-4-5-4-|
||--0-0-0-0-0-2-2-2-2-2-|-3-3-3-3-3-3-3-2-3-2-|


  E5        F#5         G5            F#G5F#5
  |---3---| |---3---|   |---3---| |---3---|
  Q E E E E Q E E E E   Q E E E E Q E E E E
|---------------------|------------------------||
|---------------------|-----------------------o||
|---------------------|------------------------||
|-2-2-2-2-2-4-4-4-4-4-|-5-5-5-5-5-5------------||
|-2-2-2-2-2-4-4-4-4-4-|-5-5-5-5-5-5-5-4-5-4---o||
|-0-0-0-0-0-2-2-2-2-2-|-3-3-3-3-3-3-3-2-3-2----||


 Verse
  $
  $$
  E5        F#5              G5                   F#5G5 F#5
  Gtr I
  |---3---|  |-----3-----|    |-----3-----|  |-----3-----|
  Q E E E E  Q  E  E  E  E    Q  E  E  E  E  Q  E  E  E  E
|--------------------------|-------------------------------|
|--------------------------|-------------------------------|
|--------------------------|-------------------------------|
|-2-2-2-2-2--4--4--4--4--4-|--5--5--5--5--5--5-------------|
|-2-2-2-2-2--4--4--4--4--4-|--5--5--5--5--5--5--5--4--5--4-|
|-0-0-0-0-0--2--2--2--2--2-|--3--3--3--3--3--3--3--2--3--2-|
|
| Gtr II
| |---3---|  |-----3-----|    |-----3-----|  |-----3-----|
| Q E E E E  Q  E  E  E  E    Q  E  E  E  E  Q  E  E  E  E
|--------------------------|-------------------------------|
|--------------------------|-------------------------------|
|-9-9-9-9-9-11-11-11-11-11-|-12-12-12-12-12-12-12-11-12-11-|
|--------------------------|-------------------------------|
|-7-7-7-7-7--9--9--9--9--9-|-10-10-10-10-10-10-10--9-10--9-|
|-0-0-0-0-0----------------|-------------------------------|


  E5        F#5              G5                   F#5G5 F#5
  |---3---|  |-----3-----|    |-----3-----|  |-----3-----|
  Q E E E E  Q  E  E  E  E    Q  E  E  E  E  Q  E  E  E  E
|--------------------------|-------------------------------|
|--------------------------|-------------------------------|
|--------------------------|-------------------------------|
|-2-2-2-2-2--4--4--4--4--4-|--5--5--5--5--5--5-------------|
|-2-2-2-2-2--4--4--4--4--4-|--5--5--5--5--5--5--5--4--5--4-|
|-0-0-0-0-0--2--2--2--2--2-|--3--3--3--3--3--3--3--2--3--2-|
|
| |---3---|  |-----3-----|    |-----3-----|  |-----3-----|
| Q E E E E  Q  E  E  E  E    Q  E  E  E  E  Q  E  E  E  E
|--------------------------|-------------------------------|
|--------------------------|-------------------------------|
|-9-9-9-9-9-11-11-11-11-11-|-12-12-12-12-12-12-12-11-12-11-|
|--------------------------|-------------------------------|
|-7-7-7-7-7--9--9--9--9--9-|-10-10-10-10-10-10-10--9-10--9-|
|-0-0-0-0-0----------------|-------------------------------|


  E5        F#5              G5                   F#5G5 F#5
  |---3---|  |-----3-----|    |-----3-----|  |-----3-----|
  Q E E E E  Q  E  E  E  E    Q  E  E  E  E  Q  E  E  E  E
|--------------------------|-------------------------------|
|--------------------------|-------------------------------|
|--------------------------|-------------------------------|
|-2-2-2-2-2--4--4--4--4--4-|--5--5--5--5--5--5-------------|
|-2-2-2-2-2--4--4--4--4--4-|--5--5--5--5--5--5--5--4--5--4-|
|-0-0-0-0-0--2--2--2--2--2-|--3--3--3--3--3--3--3--2--3--2-|
|
| |---3---|  |-----3-----|    |-----3-----|  |-----3-----|
| Q E E E E  Q  E  E  E  E    Q  E  E  E  E  Q  E  E  E  E
|--------------------------|-------------------------------|
|--------------------------|-------------------------------|
|-9-9-9-9-9-11-11-11-11-11-|-12-12-12-12-12-12-12-11-12-11-|
|--------------------------|-------------------------------|
|-7-7-7-7-7--9--9--9--9--9-|-10-10-10-10-10-10-10--9-10--9-|
|-0-0-0-0-0----------------|-------------------------------|


  E5        F#5              G5                   F#5G5 F#5
  |---3---|  |-----3-----|    |-----3-----|  |-----3-----|
  Q E E E E  Q  E  E  E  E    Q  E  E  E  E  Q  E  E  E  E
|--------------------------|-------------------------------|
|--------------------------|-------------------------------|
|--------------------------|-------------------------------|
|-2-2-2-2-2--4--4--4--4--4-|--5--5--5--5--5--5-------------|
|-2-2-2-2-2--4--4--4--4--4-|--5--5--5--5--5--5--5--4--5--4-|
|-0-0-0-0-0--2--2--2--2--2-|--3--3--3--3--3--3--3--2--3--2-|
|
| |---3---|  |-----3-----|    |-----3-----|  |-----3-----|
| Q E E E E  Q  E  E  E  E    Q  E  E  E  E  Q  E  E  E  E
|--------------------------|-------------------------------|
|--------------------------|-------------------------------|
|-9-9-9-9-9-11-11-11-11-11-|-12-12-12-12-12-12-12-11-12-11-|
|--------------------------|-------------------------------|
|-7-7-7-7-7--9--9--9--9--9-|-10-10-10-10-10-10-10--9-10--9-|
|-0-0-0-0-0----------------|-------------------------------|


   Bridge
    A5     G5 F#G5  E5
                    PM--------------------|
    |-3--| |-3--|   |-3-| |-3-| |-3-| |-3-|
    H  E E H  E E   E E E E E E E E E E E E
||----------------|-------------------------|
||o---------------|-------------------------|
||----------------|-------------------------|
||--7--x-x-5------|-------------------------|
||o-7--x-x-5--4-5-|-2-2-2-2-2-2-2-2-2-2-2-2-|
||--5--5-5-3--2-3-|-0-0-0-0-0-0-0-0-0-0-0-0-|
|
|                   PM--|   PM------|   PM|
|   |-3--| |-3--|   |-3-| |-3-| |-3-| |-3-|
|   H  E E H  E E   E E E E E E E E E E E E
||----------------|-------------------------|
||o---------------|-------------------------|
||----------------|-------------------------|
||--7--x-x-5------|-------------------------|
||o-7--x-x-5--4-5-|-2-2-2---2-2-2-2-2---2-2-|
||--5--5-5-3--2-3-|-0-0-0---0-0-0-0-0---0-0-|


                                    D.S.
  A5     G5 F#G5  E5
                  PM--------------------|
  |-3--| |-3--|   |-3-| |-3-| |-3-| |-3-|
  H  E E H  E E   E E E E E E E E E E E E
|---------------|----------------------------||
|---------------|---------------------------o||
|---------------|----------------------------||
|-7--x-x-5------|----------------------------||
|-7--x-x-5--4-5-|-2-2-2-2-2-2-2-2-2-2-2-2---o||
|-5--5-5-3--2-3-|-0-0-0-0-0-0-0-0-0-0-0-0----||
|
|                 PM--|   PM------|   PM|
| |-3--| |-3--|   |-3-| |-3-| |-3-| |-3-|
| H  E E H  E E   E E E E E E E E E E E E
|---------------|----------------------------||
|---------------|---------------------------o||
|---------------|----------------------------||
|-7--x-x-5------|----------------------------||
|-7--x-x-5--4-5-|-2-2-2---2-2-2-2-2---2-2---o||
|-5--5-5-3--2-3-|-0-0-0---0-0-0-0-0---0-0----||


 Chorus
  E5      B5   C5        G5                F#5      G5
   ~~~
                          |--3--|  |--3--|  |--3--|  |3-|
   H.            +Q       E  E  E  E  E  E  E  E  E  Q  E
|----------------------|----------------------------------|
|-12------------(12)\--|-12-10----12-10----12-10----13-15-|
|----------------------|-------12-------12-------12-------|
|--9-------------(9)\--|--9--7-----9--7-----9--7----10-12-|
|----------------------|-------10-------10-------10-------|
|----------------------|----------------------------------|
|
|  PM---|
|  |-3--|                 |------3-------|
|  E  E E q  H            Q     E  E  E  E  Q        Q
|----------------------|----------------------------------|
|----------------------|----------------------------------|
|---------4--5---------|----------------------------------|
|---------4--5---------|--5-----5--5--5--5--4--------5----|
|--2--2-2-2--3---------|--5-----5--5--5--5--4--------5----|
|--0--0-0--------------|--3-----3--3--3--3--2--------3----|


  E5      B5          C5 G5                F#5      G5
   ~~~
                          |--3--|  |--3--|  |--3--|  |3-|
   H.            +Q       E  E  E  E  E  E  E  E  E  Q  E
|----------------------|----------------------------------|
|-12------------(12)\--|-12-10----12-10----12-10----13-15-|
|----------------------|-------12-------12-------12-------|
|--9-------------(9)\--|--9--7-----9--7-----9--7----10-12-|
|----------------------|-------10-------10-------10-------|
|----------------------|----------------------------------|
|
|  PM---|
|  |-3--|                 |------3-------|
|  E  E E q  H            Q     E  E  E  E  Q        Q
|----------------------|----------------------------------|
|----------------------|----------------------------------|
|---------4--5---------|----------------------------------|
|---------4--5---------|--5-----5--5--5--5--4--------5----|
|--2--2-2-2--3---------|--5-----5--5--5--5--4--------5----|
|--0--0-0--------------|--3-----3--3--3--3--2--------3----|


  E5      B5 C5
   ~~~
   H.            +Q
|----------------------|
|-12------------(12)\--|
|----------------------|
|--9-------------(9)\--|
|----------------------|
|----------------------|
|
|  PM---|
|  |-3--|
|  E  E E q  H
|----------------------|
|----------------------|
|---------4--5---------|
|---------4--5---------|
|--2--2-2-2--3---------|
|--0--0-0--------------|


  G5                F#5      G5      E5      B5 C5
                                      ~~~
   |--3--|  |--3--|  |--3--|  |3-|
   E  E  E  E  E  E  E  E  E  Q  E    H.            +Q
|----------------------------------|----------------------|
|-12-10----12-10----12-10----13-15-|-12------------(12)\--|
|-------12-------12-------12-------|----------------------|
|--9--7-----9--7-----9--7----10-12-|--9-------------(9)\--|
|-------10-------10-------10-------|----------------------|
|----------------------------------|----------------------|
|
|                                     PM---|
|  |------3-------|                   |-3--|
|  Q     E  E  E  E  Q        Q       E  E E q  H
|----------------------------------|----------------------|
|----------------------------------|----------------------|
|----------------------------------|---------4--5---------|
|--5-----5--5--5--5--4--------5----|---------4--5---------|
|--5-----5--5--5--5--4--------5----|--2--2-2-2--3---------|
|--3-----3--3--3--3--2--------3----|--0--0-0--------------|


                                                           D.S.S.
  G5                F#5      G5         E5
                                         ~~
   |--3--|  |--3--|  |--3--|
   E  E  E  E  E  E  E  E  E  E  a  E    W           +Q    q  q  Q
|-------------------------------------|-----------|-----------------|
|-12-10----12-10----12-10----13-13h15-|-12--------|-(12)\-----------|
|-------12-------12-------12----------|-----------|-----------------|
|--9--7-----9--7-----9--7-------------|-----------|-----------2-----|
|-------10-------10-------10----------|-----------|--------2--2-----|
|-------------------------------------|-----------|--------0--0-----|
|
|  |------3-------|
|  Q     E  E  E  E  Q        Q          W           +Q    q  q  Q
|-------------------------------------|-----------|-----------------|
|-------------------------------------|-----------|-----------------|
|-------------------------------------|-----------|-----------------|
|--5-----5--5--5--5--4--------5-------|--2--------|--(2)------2-----|
|--5-----5--5--5--5--4--------5-------|--2--------|--(2)---2--2-----|
|--3-----3--3--3--3--2--------3-------|--0--------|--(0)---0--0-----|


   Bridge
    E5                                        N.C.
   3/4              4/4
                                ~~~
    |---3----| |3|   |---3---|  |---3---|
    Q  E E E E Q E   Q E E E E  Q.  E E E  3x W             H     H
||-----------------|-----------------------||-------------|-------------|
||o----------------|----------------------o||-------------|-------------|
||-----------------|-----------------------||-------------|-------------|
||-----------------|----------------5-4-3--||-------------|-------------|
||o-2--2-2-2-2---3-|-2-2-2-2-2------------o||-------------|-x\----x\----|
||--0--0-0-0-0-1---|-0-0-0-0-0-/3----------||-------------|-x\----x\----|
|
|   H.               W                     3x H     H       H     H
||-----------------|-----------------------||-------------|-------------|
||o----------------|----------------------o||-------------|-------------|
||-----------------|-----------------------||-------------|-------------|
||-----------------|-----------------------||-------------|-------------|
||o----------------|----------------------o||-x\----x\----|-x\----x\----|
||-----------------|-----------------------||-x\----x\----|-x\----x\----|


 Solo
  E5
 3/4               4/4
  Gtrs I, II
                                 ~~~
  |----3----| |3|    |---3----|  |---3---|
  Q   E E E E Q E    Q  E E E E  Q.  E E E
|-----------------|------------------------|
|-----------------|------------------------|
|-----------------|------------------------|
|-----------------|------------------5-4-3-|
|-2---2-2-2-2---3-|--2--2-2-2-2------------|
|-0---0-0-0-0-1---|--0--0-0-0-0-/3---------|
|
| Gtr III
| H.                +W
|-----------------|------------------------|
|-----------------|------------------------|
|-7b9-------------|-(7)--------------------|
|-----------------|------------------------|
|-----------------|------------------------|
|-----------------|------------------------|


 3/4               4/4
                                   ~~~
   |---3----| |3|     |----3----|  |---3---|
   Q  E E E E Q E     Q   E E E E  Q.  E E E
|-----------------|---------------------------|
|-----------------|---------------------------|
|-----------------|---------------------------|
|-----------------|--------------------5-4-3--|
|--2--2-2-2-2---3-|---2---2-2-2-2-------------|
|--0--0-0-0-0-1---|---0---0-0-0-0-/3----------|
|
|  H.                +W
|-----------------|---------------------------|
|-----------------|---------------------------|
|-<9>-------------|-(<9>)---------------------|
|-----------------|---------------------------|
|-----------------|---------------------------|
|-----------------|---------------------------|


 3/4                        4/4
                                          ~~~
   |-----3-----|   |--3--|    |---3----|  |----3----|
   Q     E E E E   Q     E    Q  E E E E  Q.   E  E E
|--------------------------|--------------------------|
|--------------------------|--------------------------|
|--------------------------|--------------------------|
|--------------------------|-------------------5--4-3-|
|--2-----2-2-2-2---------3-|--2--2-2-2-2--------------|
|--0-----0-0-0-0---1-------|--0--0-0-0-0-/3-----------|
|
|                             ~~~
|  H              +E   E      H.               Q
|--------------------------|------------------17/-----|
|-15pb17r========(15)-15---|-17-----------------------|
|--------------------------|--------------------------|
|--------------------------|--------------------------|
|--------------------------|--------------------------|
|--------------------------|--------------------------|


 3/4               4/4
                                  ~~~
   |---3---|  |3|    |----3----|  |----3-----|
   Q E E E E  Q E    Q  E E  E E  Q.    E  E E
|-----------------|----------------------------|
|-----------------|----------------------------|
|-----------------|----------------------------|
|-----------------|---------------------5--4-3-|
|--2-2-2-2-2----3-|--2--2-2--2-2---------------|
|--0-0-0-0-0--1---|--0--0-0--0-0-/3------------|
|
|  ~~
|                    |---3---|    |---3----|
|  H          Q      Q  Q    Q    Q   Q    Q
|-24---------24---|-22-20---19---17--20---19---|
|-----------------|----------------------------|
|-----------------|----------------------------|
|-----------------|----------------------------|
|-----------------|----------------------------|
|-----------------|----------------------------|


    B5             C5    B5             A5
   3/4
     |-----3-----|        |-----3-----|
     Q  E  E  E  E  Q     Q  E  E  E  E  Q
||---------------------|----------------------|
||o--------------------|----------------------|
||---------------------|----------------------|
||---------------------|----------------------|
||o--9--9--9--9--9-10--|--9--9--9--9--9--7----|
||---7--7--7--7--7--8--|--7--7--7--7--7--5----|
|
|    |-----3-----|        |-----3-----|  |3-|
|    Q  E  E  E  E  Q     Q  E  E  E  E  Q  E
||---------------------|----------------------|
||o-12-12-12-12-12-13--|-12-12-12-12-12-10-11-|
||---------------------|----------------------|
||---9--9--9--9--9-10--|--9--9--9--9--9--7--8-|
||o--------------------|----------------------|
||---------------------|----------------------|


  B5             C5    B5  A5  Bb5
   |-----3-----|
   Q  E  E  E  E  Q     Q   Q   Q
|--------------------|---------------||
|--------------------|--------------o||
|--------------------|---------------||
|--------------------|--9---7---8----||
|--9--9--9--9--9-10--|--9---7---8---o||
|--7--7--7--7--7--8--|--7---5---6----||
|
|  |-----3-----|
|  Q  E  E  E  E  Q     Q   Q   Q
|--------------------|---------------||
|-12-12-12-12-12-13--|-12--10--11---o||
|--------------------|---------------||
|--9--9--9--9--9-10--|--9---7---8----||
|--------------------|--------------o||
|--------------------|---------------||


   Bridge
    E5
                   4/4
    Gtrs I, II
                               ~~~
    |---3---| |3|   |---3---|  |---3---|
    Q E E E E Q E   Q E E E E  Q.  E E E
||----------------|----------------------|
||o---------------|----------------------|
||----------------|----------------------|
||----------------|----------------5-4-3-|
||o-2-2-2-2-2---3-|-2-2-2-2-2------------|
||--0-0-0-0-0-1---|-0-0-0-0-0-/3---------|


 3/4             4/4
                             ~~~
  |---3---| |3|   |---3---|  |---3---|
  Q E E E E Q E   Q E E E E  Q.  E E E
|---------------|------------------------||
|---------------|-----------------------o||
|---------------|------------------------||
|---------------|----------------5-4-3---||
|-2-2-2-2-2---3-|-2-2-2-2-2-------------o||
|-0-0-0-0-0-1---|-0-0-0-0-0-/3-----------||


  E5   F#5    G5     G        F#
  Gtr I
                      |--3--|  |--3--|
  H    H       H      E  E  E  E  E  E
|-----------|--------------------------|
|-----------|--------------------------|
|-----------|--------12-12-12-11-11-11-|
|-2----4----|--5-----------------------|
|-2----4----|--5-----10-10-10--9--9--9-|
|-0----2----|--3-----------------------|
|
| Gtr II
| W           +W
|-----------|--------------------------|
|-----------|--------------------------|
|-----------|--------------------------|
|-2---------|-(2)----------------------|
|-2---------|-(2)----------------------|
|-0---------|-(0)----------------------|


  E5     F#5    G5     G        F#
                        |--3--|  |--3--|
   H     H       H      E  E  E  E  E  E
|-------------|----------------------------|
|-------------|----------------------------|
|-------------|--------12-12-12-11-11-11---|
|--2-----4----|--5-------------------------|
|--2-----4----|--5-----10-10-10--9--9--9---|
|--0-----2----|--3-------------------------|
|
| +W            +W
|-------------|----------------------------|
|-------------|----------------------------|
|-------------|----------------------------|
|-(2)---------|-(2)------------------------|
|-(2)---------|-(2)------------------------|
|-(0)---------|-(0)------------------------|


  E5     F#5    G5     G        F#         A5         G5   F#5G5
                        |--3--|  |--3--|
   H     H       H      E  E  E  E  E  E   W          H    Q  Q
|-------------|--------------------------|----------|-------------|
|-------------|--------------------------|----------|-------------|
|-------------|--------12-12-12-11-11-11-|----------|-------------|
|--2-----4----|--5-----------------------|-7--------|-5----4--5---|
|--2-----4----|--5-----10-10-10--9--9--9-|-7--------|-5----4--5---|
|--0-----2----|--3-----------------------|-5--------|-3----2--3---|
|
| +W            +W                         W          H    Q  Q
|-------------|--------------------------|----------|-------------|
|-------------|--------------------------|----------|-------------|
|-------------|--------------------------|----------|-------------|
|-(2)---------|-(2)----------------------|-7--------|-5----4--5---|
|-(2)---------|-(2)----------------------|-7--------|-5----4--5---|
|-(0)---------|-(0)----------------------|-5--------|-3----2--3---|


 Solo
  E5                F#5
  Gtrs I, II
   |------3-------|  |------3-------|
   Q     E  E  E  E  Q     E  E  E  E
|-------------------------------------|
|-------------------------------------|
|-------------------------------------|
|--2-----2--2--2--2--4-----4--4--4--4-|
|--2-----2--2--2--2--4-----4--4--4--4-|
|--0-----0--0--0--0--2-----2--2--2--2-|
|
| Gtr III
|  |--3--|  |--3--|  |--3--|  |--3--|
|  E  E  E  E  E  E  E  E  E  E  E  E
|-19-17-15-19-17-15-19-17-15-19-17-15-|
|-------------------------------------|
|-16-14-12-16-14-12-16-14-12-16-14-12-|
|-------------------------------------|
|-------------------------------------|
|-------------------------------------|


  G5                         F#5G5 F#5  E5                F#5
   |------3-------|  |------3-------|    |------3-------|  |------3-------|
   Q     E  E  E  E  Q     E  E  E  E    Q     E  E  E  E  Q     E  E  E  E
|-------------------------------------|-------------------------------------|
|-------------------------------------|-------------------------------------|
|-------------------------------------|-------------------------------------|
|--5-----5--5--5--5--5----------------|--2-----2--2--2--2--4-----4--4--4--4-|
|--5-----5--5--5--5--5-----5--4--5--4-|--2-----2--2--2--2--4-----4--4--4--4-|
|--3-----3--3--3--3--3-----3--2--3--2-|--0-----0--0--0--0--2-----2--2--2--2-|
|
|  |--3--|  |--3--|  |--3--|  |--3--|    |--3--|  |--3--|  |--3--|  |--3--|
|  E  E  E  E  E  E  E  E  E  E  E  E    E  E  E  E  E  E  E  E  E  E  E  E
|-19-17-15-17-15-14-17-15-14-17-15-14-|-17-15-14-15-14-12-19-17-15-19-17-15-|
|-------------------------------------|-------------------------------------|
|-16-14-12-16-14-12-16-14-12-16-14-12-|-14-12-11-14-12-11-14-12-11-14-12-11-|
|-------------------------------------|-------------------------------------|
|-------------------------------------|-------------------------------------|
|-------------------------------------|-------------------------------------|


  G5                         F#5G5 F#5
   |------3-------|  |------3-------|
   Q     E  E  E  E  Q     E  E  E  E
|-------------------------------------|
|-------------------------------------|
|-------------------------------------|
|--5-----5--5--5--5--5----------------|
|--5-----5--5--5--5--5-----5--4--5--4-|
|--3-----3--3--3--3--3-----3--2--3--2-|
|
|  |--3--|  |--3--|  |--3--|  |--3--|
|  E  E  E  E  E  E  E  E  E  E  E  E
|-15-14-12-14-12-10-14-12-10-14-12-10-|
|-------------------------------------|
|-14-12-11-14-12-11-14-12-11-14-12-11-|
|-------------------------------------|
|-------------------------------------|
|-------------------------------------|


  E5                F#5                 G5                         F#5G5 F#5
   |------3-------|  |------3-------|    |------3-------|  |------3-------|
   Q     E  E  E  E  Q     E  E  E  E    Q     E  E  E  E  Q     E  E  E  E
|-------------------------------------|-------------------------------------|
|-------------------------------------|-------------------------------------|
|-------------------------------------|-------------------------------------|
|--2-----2--2--2--2--4-----4--4--4--4-|--5-----5--5--5--5--5----------------|
|--2-----2--2--2--2--4-----4--4--4--4-|--5-----5--5--5--5--5-----5--4--5--4-|
|--0-----0--0--0--0--2-----2--2--2--2-|--3-----3--3--3--3--3-----3--2--3--2-|
|
|  |--3--|  |--3--|  |--3--|  |--3--|    |--3--|  |--3--|  |--3--|  |--3--|
|  E  E  E  E  E  E  E  E  E  E  E  E    E  E  E  E  E  E  E  E  E  E  E  E
|-19-17-15-19-17-15-19-17-15-19-17-15-|-19-17-15-17-15-14-17-15-14-17-15-14-|
|-------------------------------------|-------------------------------------|
|-16-14-12-16-14-12-16-14-12-16-14-12-|-16-14-12-16-14-12-16-14-12-16-14-12-|
|-------------------------------------|-------------------------------------|
|-------------------------------------|-------------------------------------|
|-------------------------------------|-------------------------------------|


  E5           F#5            G5                F#G5F#5
   |----3----|  |----3----|    |----3----|  |---3---|
   Q  E E  E E  Q  E E  E E    Q  E E  E E  Q E E E E
|---------------------------|-------------------------|
|---------------------------|-------------------------|
|---------------------------|-------------------------|
|--2--2-2--2-2--4--4-4--4-4-|--5--5-5--5-5--5---------|
|--2--2-2--2-2--4--4-4--4-4-|--5--5-5--5-5--5-5-4-5-4-|
|--0--0-0--0-0--2--2-2--2-2-|--3--3-3--3-3--3-3-2-3-2-|
|
|  |---3---|    |---3---|      |---3---|
|  Q  Q    Q    Q  Q    Q      Q  Q    Q    H
|-19-17---15---17-15---14---|-15-14---12---10---------|
|-19-17---15---17-15---14---|-15-14---12---10---------|
|---------------------------|-------------------------|
|---------------------------|-------------------------|
|---------------------------|-------------------------|
|---------------------------|-------------------------|


  A5
  Q     Q        Q        Q
|---------------------------------|
|---------------------------------|
|---------------------------------|
|-7-----7--------7--------7-------|
|-7-----7--------7--------7-------|
|-5-----5--------5--------5-------|
|
| |-3-| |--3--|  |--3--|  |--3--|
| E E E E  E  E  E  E  E  E  E  E
|---------------------------------|
|---------------------------------|
|-----7-9-11-12-14-12-11-16-14-12-|
|-7-9-----------------------------|
|---------------------------------|
|---------------------------------|


  G5                       A5
   Q      Q        Q  Q     Q        Q        Q        Q
|------------------------|--------------------------------|
|------------------------|--------------------------------|
|------------------------|--------------------------------|
|--5------5--------5--5--|--7--------7--------7--------7--|
|--5------5--------5--5--|--7--------7--------7--------7--|
|--3------3--------3--3--|--5--------5--------5--------5--|
|
|                  ~~                                  ~~
|         |--3--|           |--3--|  |--3--|  |--3--|
|  Q      E  E  E  H        E  E  E  E  E  E  E  E  E  Q
|------------------------|--------------------------------|
|------------------------|----------------------------19--|
|-16b17r=14-12-14-16-----|-17-16-14-17-16-14-17-16-14-----|
|------------------------|--------------------------------|
|------------------------|--------------------------------|
|------------------------|--------------------------------|


  G5
   Q                 Q                 Q                 Q
|-------------------------------------------------------------------------|
|-------------------------------------------------------------------------|
|-------------------------------------------------------------------------|
|--5-----------------5-----------------5-----------------5----------------|
|--5-----------------5-----------------5-----------------5----------------|
|--3-----------------3-----------------3-----------------3----------------|
|
|  |--3--|  |--3--|  |--3--|  |--3--|  |--3--|  |--3--|  |--3--|  |--3--|
|  S  S  S  S  S  S  S  S  S  S  S  S  S  S  S  S  S  S  S  S  S  S  S  S
|-19-17-15-19-17-15-19-17-15-19-17-15-19-17-15-19-17-15-19-17-15-19-17-15-|
|-------------------------------------------------------------------------|
|-------------------------------------------------------------------------|
|-------------------------------------------------------------------------|
|-------------------------------------------------------------------------|
|-------------------------------------------------------------------------|


  A5                G5
   Q     Q  Q  Q     Q       Q     Q  Q
|-----------------|-----------------------|
|-----------------|-----------------------|
|-----------------|-----------------------|
|--7-----7--7--7--|--5-------5-----5--5---|
|--7-----7--7--7--|--5-------5-----5--5---|
|--5-----5--5--5--|--3-------3-----3--3---|
|
|  ~~~~~                           ~~
|  W                 Q       E  E  H
|-17b19-----------|-15pb16r=14-12-14------|
|-----------------|-----------------------|
|-----------------|-----------------------|
|-----------------|-----------------------|
|-----------------|-----------------------|
|-----------------|-----------------------|


  F#5
  Q            Q            Q            Q
|-----------------------------------------------------|
|-----------------------------------------------------|
|-----------------------------------------------------|
|-4------------4------------4------------4------------|
|-4------------4------------4------------4------------|
|-2------------2------------2------------2------------|
|
| |-3--| |-3-| |-3--| |-3-| |-3--| |-3-| |-3--| |-3-|
| S S  S S S S S S  S S S S S S  S S S S S S  S S S S
|-----------------------------------------------------|
|-----------------------------------------------------|
|-----------------------------------------------------|
|---------------------------7-9-10-9-7-9-7-9-10-9-7-9-|
|-7-9-10-9-7-9-7-9-10-9-7-9---------------------------|
|-----------------------------------------------------|


  G5                                  A5
   Q                 Q                Q            Q
|----------------------------------------------------------------|
|----------------------------------------------------------------|
|----------------------------------------------------------------|
|--5-----------------5----------------7------------7-------------|
|--5-----------------5----------------7------------7-------------|
|--3-----------------3----------------5------------5-------------|
|
|  |--3--|  |--3--|  |--3--|  |--3--| |-3--| |-3-| |-3--| |-3-|
|  S  S  S  S  S  S  S  S  S  S  S  S S S  S S S S S S  S S S S
|----------------------------------------------------------------|
|----------------------------------------------------------------|
|-------------------------------------7-9-11-9-7-9-7-9-11-9-7-9--|
|-10-12-14-10-12-10-10-12-14-10-12-10----------------------------|
|----------------------------------------------------------------|
|----------------------------------------------------------------|


  E5
  Gtr I
                       |-3-|                        |-3-|
   q       H           Q   E     q      H           Q   E
|----------------------------|----------------------------|
|----------------------------|----------------------------|
|----------------------------|----------------------------|
|----------------------0---2-|----------------------0---2-|
|----------------------0---2-|----------------------0---2-|
|--0-------------------------|---0------------------------|
|
| Gtr II
|  |--3--| |-3-| |-3-| |-3-|     |-3--| |-3-| |-3-| |-3-|
|  E   E E E E E E E E E E E     E  E E E E E E E E E E E
|----------------------------|----------------------------|
|----------------------------|----------------------------|
|----------------------------|----------------------------|
|----------------------------|----------------------------|
|--2---2-2-2-2-2-2-2-2-2-2-2-|---2--2-2-2-2-2-2-2-2-2-2-2-|
|--0---0-0-0-0-0-0-0-0-0-0-0-|---0--0-0-0-0-0-0-0-0-0-0-0-|
|
| Gtr III
|  \5______________________________________________________
|  W                            +W
|-17-------------------------|-(17)-----------------------|
|-17-------------------------|-(17)-----------------------|
|----------------------------|----------------------------|
|----------------------------|----------------------------|
|----------------------------|----------------------------|
|----------------------------|----------------------------|


                                               C5Bb5/F
                    |-3-|                      |3|
  q     H           Q   E   q     Q      Q     Q E
|-------------------------|------------------------|
|-------------------------|------------------------|
|-------------------------|------------------------|
|-------------------0---2-|------------------------|
|-------------------0---2-|-------------/7-----3-1-|
|-0-----------------------|-0-----------/7-----3-1-|
|
| |-3-| |-3-| |-3-| |-3-|   |-3-| |-3-|  |-3-| |3|
| E E E E E E E E E E E E   E E E E E E  E E E Q E
|-------------------------|------------------------|
|-------------------------|------------------------|
|-------------------------|------------------------|
|-------------------------|------------------------|
|-2-2-2-2-2-2-2-2-2-2-2-2-|-2-2-2-2-2-2--2-2-2-3-1-|
|-0-0-0-0-0-0-0-0-0-0-0-0-|-0-0-0-0-0-0--0-0-0-3-1-|
|
| W                         W
|-------------------------|------------------------|
|-------------------------|------------------------|
|-------------------------|------------------------|
|-------------------------|------------------------|
|-------------------------|------------------------|
|-------------------------|------------------------|


 Pre-Verse
  E5                D5E5/BE5                D5E5/BE5
  Gtrs I, II
  |-3-| |-3-| |-3-| |3|   |-3-| |-3-| |-3-| |3|
  E E E E E E E E E Q E   E E E E E E E E E Q E
|-----------------------|-----------------------|
|-----------------------|-----------------------|
|-----------------------|-----------------------|
|-------------------0-2-|-------------------0-2-|
|-2-2-2-2-2-2-2-2-2-0-2-|-2-2-2-2-2-2-2-2-2-0-2-|
|-0-0-0-0-0-0-0-0-0-----|-0-0-0-0-0-0-0-0-0-----|


                    D5E5/BE5                C5Bb5/F
  |-3-| |-3-| |-3-| |3|   |-3-| |-3-| |-3-| |3|
  E E E E E E E E E Q E   E E E E E E E E E Q E
|-----------------------|--------------------------|
|-----------------------|--------------------------|
|-----------------------|--------------------------|
|-------------------0-2-|--------------------------|
|-2-2-2-2-2-2-2-2-2-0-2-|-2-2-2-2-2-2-2-2-2-3-1----|
|-0-0-0-0-0-0-0-0-0-----|-0-0-0-0-0-0-0-0-0-3-1----|


  E5                D5E5/BE5                D5E5/BE5
  |-3-| |-3-| |-3-| |3|   |-3-| |-3-| |-3-| |3|
  E E E E E E E E E Q E   E E E E E E E E E Q E
|-----------------------|-----------------------|
|-----------------------|-----------------------|
|-9-9-9-9-9-9-9-9-9-----|-9-9-9-9-9-9-9-9-9-----|
|-9-9-9-9-9-9-9-9-9-0-2-|-9-9-9-9-9-9-9-9-9-0-2-|
|-7-7-7-7-7-7-7-7-7-0-2-|-7-7-7-7-7-7-7-7-7-0-2-|
|-----------------------|-----------------------|


                    D5E5/BE5                C5Bb5/F
  |-3-| |-3-| |-3-| |3|   |-3-| |-3-| |-3-| |3|
  E E E E E E E E E Q E   E E E E E E E E E Q E
|-----------------------|--------------------------|
|-----------------------|--------------------------|
|-9-9-9-9-9-9-9-9-9-----|-9-9-9-9-9-9-9-9-9--------|
|-9-9-9-9-9-9-9-9-9-0-2-|-9-9-9-9-9-9-9-9-9--------|
|-7-7-7-7-7-7-7-7-7-0-2-|-7-7-7-7-7-7-7-7-7-3-1----|
|-----------------------|-------------------3-1----|


  E5                D5E5/BE5                D5E5/BE5
  Gtr I
  |-3-| |-3-| |-3-| |3|   |-3-| |-3-| |-3-| |3|
  E E E E E E E E E Q E   E E E E E E E E E Q E
|-------------------5-7-|-------------------5-7-|
|-5-5-5-5-5-5-5-5-5-5-7-|-5-5-5-5-5-5-5-5-5-5-7-|
|-4-4-4-4-4-4-4-4-4-----|-4-4-4-4-4-4-4-4-4-----|
|-----------------------|-----------------------|
|-----------------------|-----------------------|
|-----------------------|-----------------------|
|
| Gtr II
| |-3-| |-3-| |-3-| |3|   |-3-| |-3-| |-3-| |3|
| E E E E E E E E E Q E   E E E E E E E E E Q E
|-----------------------|-----------------------|
|-----------------------|-----------------------|
|-9-9-9-9-9-9-9-9-9-----|-9-9-9-9-9-9-9-9-9-----|
|-9-9-9-9-9-9-9-9-9-0-2-|-9-9-9-9-9-9-9-9-9-0-2-|
|-7-7-7-7-7-7-7-7-7-0-2-|-7-7-7-7-7-7-7-7-7-0-2-|
|-----------------------|-----------------------|


                    D5E5/BE5                C5Bb5/F
  |-3-| |-3-| |-3-| |3|   |-3-| |-3-| |-3-| |3|
  E E E E E E E E E Q E   E E E E E E E E E Q E
|-------------------5-7-|--------------------------|
|-5-5-5-5-5-5-5-5-5-5-7-|-5-5-5-5-5-5-5-5-5--------|
|-4-4-4-4-4-4-4-4-4-----|-4-4-4-4-4-4-4-4-4--------|
|-----------------------|--------------------------|
|-----------------------|-------------------3-1----|
|-----------------------|-------------------3-1----|
|
| |-3-| |-3-| |-3-| |3|   |-3-| |-3-| |-3-| |3|
| E E E E E E E E E Q E   E E E E E E E E E Q E
|-----------------------|--------------------------|
|-----------------------|--------------------------|
|-9-9-9-9-9-9-9-9-9-----|-9-9-9-9-9-9-9-9-9--------|
|-9-9-9-9-9-9-9-9-9-0-2-|-9-9-9-9-9-9-9-9-9--------|
|-7-7-7-7-7-7-7-7-7-0-2-|-7-7-7-7-7-7-7-7-7-3-1----|
|-----------------------|-------------------3-1----|


 Chorus
  E5      B5 C5          G5                F#5      G5
   ~~~
                          |--3--|  |--3--|  |--3--|  |3-|
   H.            +Q       E  E  E  E  E  E  E  E  E  Q  E
|----------------------|----------------------------------|
|-12------------(12)\--|-12-10----12-10----12-10----13-15-|
|----------------------|-------12-------12-------12-------|
|--9-------------(9)\--|--9--7-----9--7-----9--7----10-12-|
|----------------------|-------10-------10-------10-------|
|----------------------|----------------------------------|
|
|  PM---|
|  |-3--|                 |------3-------|
|  E  E E q  H            Q     E  E  E  E  Q        Q
|----------------------|----------------------------------|
|----------------------|----------------------------------|
|---------4--5---------|----------------------------------|
|---------4--5---------|--5-----5--5--5--5--4--------5----|
|--2--2-2-2--3---------|--5-----5--5--5--5--4--------5----|
|--0--0-0--------------|--3-----3--3--3--3--2--------3----|


  E5      B5 C5          G5                F#5      G5
   ~~~
                          |--3--|  |--3--|  |--3--|  |3-|
   H.            +Q       E  E  E  E  E  E  E  E  E  Q  E
|----------------------|----------------------------------|
|-12------------(12)\--|-12-10----12-10----12-10----13-15-|
|----------------------|-------12-------12-------12-------|
|--9-------------(9)\--|--9--7-----9--7-----9--7----10-12-|
|----------------------|-------10-------10-------10-------|
|----------------------|----------------------------------|
|
|  PM---|
|  |-3--|                 |------3-------|
|  E  E E q  H            Q     E  E  E  E  Q        Q
|----------------------|----------------------------------|
|----------------------|----------------------------------|
|---------4--5---------|----------------------------------|
|---------4--5---------|--5-----5--5--5--5--4--------5----|
|--2--2-2-2--3---------|--5-----5--5--5--5--4--------5----|
|--0--0-0--------------|--3-----3--3--3--3--2--------3----|


  E5      B5 C5          G5                F#5      G5      E5      B5 C5
   ~~~                                                       ~~~
                          |--3--|  |--3--|  |--3--|  |3-|
   H.            +Q       E  E  E  E  E  E  E  E  E  Q  E    H.            +Q
|----------------------|----------------------------------|----------------------|
|-12------------(12)\--|-12-10----12-10----12-10----13-15-|-12------------(12)\--|
|----------------------|-------12-------12-------12-------|----------------------|
|--9-------------(9)\--|--9--7-----9--7-----9--7----10-12-|--9-------------(9)\--|
|----------------------|-------10-------10-------10-------|----------------------|
|----------------------|----------------------------------|----------------------|
|
|  PM---|                                                    PM---|
|  |-3--|                 |------3-------|                   |-3--|
|  E  E E q  H            Q     E  E  E  E  Q        Q       E  E E q  H
|----------------------|----------------------------------|----------------------|
|----------------------|----------------------------------|----------------------|
|---------4--5---------|----------------------------------|---------4--5---------|
|---------4--5---------|--5-----5--5--5--5--4--------5----|---------4--5---------|
|--2--2-2-2--3---------|--5-----5--5--5--5--4--------5----|--2--2-2-2--3---------|
|--0--0-0--------------|--3-----3--3--3--3--2--------3----|--0--0-0--------------|


  G5                F#5      G5         E5
                                         ~~
   |--3--|  |--3--|  |--3--|
   E  E  E  E  E  E  E  E  E  E  a  E    W           +Q    q  q  Q
|-------------------------------------|-----------|-------------------*|
|-12-10----12-10----12-10----13-13h15-|-12--------|-(12)\-------------*|
|-------12-------12-------12----------|-----------|-------------------*|
|--9--7-----9--7-----9--7-------------|-----------|-----------2-------*|
|-------10-------10-------10----------|-----------|--------2--2-------*|
|-------------------------------------|-----------|--------0--0-------*|
|
|  |------3-------|
|  Q     E  E  E  E  Q        Q          W           +Q    q  q  Q
|-------------------------------------|-----------|-------------------*|
|-------------------------------------|-----------|-------------------*|
|-------------------------------------|-----------|-------------------*|
|--5-----5--5--5--5--4--------5-------|--2--------|--(2)------2-------*|
|--5-----5--5--5--5--4--------5-------|--2--------|--(2)---2--2-------*|
|--3-----3--3--3--3--2--------3-------|--0--------|--(0)---0--0-------*|



Duration Legend
---------------
W - whole; H - half; Q - quarter; E - 8th; S - 16th; T - 32nd; X - 64th; a - acciaccatura
+ - note tied to previous; . - note dotted; .. - note double dotted
Uncapitalized letters represent notes that are staccato (1/2 duration)
Irregular groupings are notated above the duration line
Duration letters will always appear directly above the note/fret number it represents the
duration for.  Duration letters with no fret number below them represent rests.  Multi-
bar rests are notated in the form Wxn, where n is the number of bars to rest for.  Low
melody durations appear below the staff

Tablature Legend
----------------
 h   - hammer-on
 p   - pull-off
 b   - bend
 pb  - pre-bend
 r   - bend release (if no number after the r, then release immediately)
 /\  - slide into or out of (from/to "nowhere")
 s   - legato slide
 S   - shift slide
 - natural harmonic
[n]  - artificial harmonic
n(n) - tapped harmonic
 ~   - vibrato
 tr  - trill
 T   - tap
 TP  - trem. picking
 PM  - palm muting
\n/  - tremolo bar dip; n = amount to dip
 \n  - tremolo bar down
 n/  - tremolo bar up
/n\  - tremolo bar inverted dip
 =   - hold bend; also acts as connecting device for hammers/pulls
 <> - volume swell (louder/softer)
 x   - on rhythm slash represents muted slash
 o   - on rhythm slash represents single note slash

Misc Legend
-----------
 |  - bar
||  - double bar
||o - repeat start
o|| - repeat end
*|  - double bar (ending)
 :  - bar (freetime)
 $  - Segno
 &  - Coda
Tempo markers -  = BPM(8/16=s8/s16), where s8 = swing 8ths, s16 = swing 16ths

comments
We did not receive enough feedback on this tab! Please rate:
1 2 3 4 5
I want to post or [tab]
guest
You may want to rate the tab now too:
select rating
Please do not post tabs as comments. Select "correction" instead!