Oops, an error
Loading. Please wait.

Johnnys Rebellion Tab

ver1
ver1

Whole song

Interactive

More versions @911Tabs.com
2,610 views 99 this week
no commentswrite comment
1 2 3 4 5
excellent!
x 2
Autoscroll
+/-
esc
set tempo
stop
Contributor
Difficulty
Tuning
intermediate
B F# B E G# C#
Hey! There's an official Ultimate Guitar app which is ideal
for learning songs when you're away from computer. Get the app
WARNING: You are trying to view
                                    content from Ultimate-Guitar.com
                                    in an unauthorized application,
                                    which is prohibited.

                                    Please use an official Ultimate
                                    Guitar Tabs application for iPhone,
                                    iPad or Android to access legitimate
                                    chords, guitar, bass, and drum tabs
                                    from Ultimate-Guitar.com database.

                                    Type "ultimate guitar tabs" in Apple
                                    App Store's or Android Market's
                                    search to find the application.
----------------------------------------------------------------------------
                         Johnny's Rebellion
                           Crown the Empire
----------------------------------------------------------------------------

The third installment to the Johnny Ringo series and it is as crazy as ever. You can
just taste the insanity in
this song, making this my favorite song off the album. Chuck full of cool riffs and a
kickass guitar solo.
Enjoy!

Username: dkm817 (same on X box live)
Youtube Cover: https://www.youtube.com/watch?v=W0oXG3xqbz8
Email: guitardrums@rockfan.com

Guitar 1 Rhythmic (B  F# B  E  G# C#)
Guitar 2 Lead     (B  F# B  E  G# C#)

NOTE: This was exported off of guitar pro.


Guitar 1

(Piano)

       W                    H         H            W
C#||--------------------|----------------------|--------------------|
G#||--19----------------|--17--------19--------|--14----------------|
E ||--19----------------|--18--------16--------|--15----------------|
B ||--------------------|----------------------|--------------------|
F#||--------------------|----------------------|--------------------|
B ||--------------------|----------------------|--------------------|


   H         H            W                    H         H
--15--------14--------|--------------------|--21--------22--------|
----------------------|--19----------------|----------------------|
--15--------15--------|--16----------------|--21--------21--------|
----------------------|--------------------|----------------------|
----------------------|--------------------|----------------------|
----------------------|--------------------|----------------------|


   W                    W                    W
--24----------------|--26----------------|--------------------|
--------------------|--------------------|--19----------------|
--23----------------|--23----------------|--19----------------|
--------------------|--------------------|--------------------|
--------------------|--------------------|--------------------|
--------------------|--------------------|--------------------|


   H         H            W                    H         H
----------------------|--------------------|--15--------14--------|
--17--------19--------|--14----------------|----------------------|
--18--------16--------|--15----------------|--15--------15--------|
----------------------|--------------------|----------------------|
----------------------|--------------------|----------------------|
----------------------|--------------------|----------------------|


   W                    H         H            W
--------------------|--21--------22--------|--24----------------|
--19----------------|----------------------|--------------------|
--16----------------|--21--------21--------|--23----------------|
--------------------|----------------------|--------------------|
--------------------|----------------------|--------------------|
--------------------|----------------------|--------------------|


   W                    W                    H         H
--26----------------|--------------------|----------------------|
--------------------|--19----------------|--17--------19--------|
--23----------------|--19----------------|--18--------16--------|
--------------------|--------------------|----------------------|
--------------------|--------------------|----------------------|
--------------------|--------------------|----------------------|


   W                    H         H            W
--------------------|--15--------14--------|--------------------|
--14----------------|----------------------|--19----------------|
--15----------------|--15--------15--------|--16----------------|
--------------------|----------------------|--------------------|
--------------------|----------------------|--------------------|
--------------------|----------------------|--------------------|


   H         H            W                    W
--21--------22--------|--24----------------|---------------------|
----------------------|--------------------|---------------------|
--21--------21--------|--23----------------|--20b----------------|
----------------------|--------------------|---------------------|
----------------------|--------------------|---------------------|
----------------------|--------------------|---------------------|


  W
-------------------|-------------------|-------------------|
-------------------|-------------------|-------------------|
--L----------------|-------------------|-------------------|
-------------------|-------------------|-------------------|
-------------------|-------------------|-------------------|
-------------------|-------------------|-------------------|

(Distortion Guitar)

                                   W
  E  E  E  E  E  E     S S S S S S Q    E     E  E  E  E  E  E
--------------------|----------------------|--------------------|
--------------------|----------------------|--------------------|
--------------------|----------------------|--------------------|
--0--------0--------|-------------------0--|--8--7--0--7--5--0--|
--0--------0--------|-------------------0--|--8--7--0--7--5--0--|
--0--------0--------|--2-3-2-0-2-3-7----0--|--8--7--0--7--5--0--|


                                                             W
  S S S S S S S S S S E     E  E  E  E  E  E     S S S S S S Q    E
-------------------------|--------------------|----------------------|
-------------------------|--------------------|----------------------|
-------------------------|--------------------|----------------------|
--------------7---7---7--|--0--------0--------|-------------------0--|
--------------7---7---7--|--0--------0--------|-------------------0--|
--2-3-2-0-2-3-7---7---7--|--0--------0--------|--2-3-2-0-2-3-7----0--|


  E  E  E  E  E  E     S S S S S S S S S S E     E  E  E  E  E  E
--------------------|-------------------------|--------------------|
--------------------|-------------------------|--------------------|
--------------------|-------------------------|--------------------|
--8--7--0--7--5--0--|--------------7---7---7--|--0--------0--------|
--8--7--0--7--5--0--|--------------7---7---7--|--0--------0--------|
--8--7--0--7--5--0--|--2-3-2-0-2-3-7---7---7--|--0--------0--------|


  H.              H.              H.              H.
---------------|---------------|---------------|---------------|---------------|
---------------|---------------|---------------|---------------|---------------|
---------------|---------------|---------------|---------------|---------------|
--0------------|--L------------|--L------------|--L------------|---------------|
--0------------|--L------------|--L------------|--L------------|---------------|
--0------------|--L------------|--L------------|--L------------|---------------|


  S S S S S S S S S S S S    S S S S S S S S S S S S
--------------------------|--------------------------|
--------------------------|--------------------------|
--------------------------|--------------------------|
--------------------------|--------------5-----------|
--5---5---5-8-5---5---5-8-|--5---5---5-8---8-7-8-7-5-|
----0---0-------0---0-----|----0---0-----------------|


  S S S S S S S S S S S S    S S S S S S S S S S S S
--------------------------|--------------------------|
--------------------------|--------------------------|
--------------------------|--------------------------|
--------------------------|--------------------------|
--4---4---4-7-4---4---4-5-|--4---4---4-7-4-5-7-5-7-8-|
----0---0-------0---0-----|----0---0-----------------|


  PM PM PM PM     PM PM PM PM        PM PM PM PM     PM PM PM PM
  S  S  S  S  S S S  S  S  S  S S    S  S  S  S  S S S  S  S  S  S S
----------------------------------|----------------------------------|
----------------------------------|----------------------------------|
----------------------------------|----------------------------------|
--5--5--5--5--7-8-5--5--5--5--7-8-|--3--3--3--3--5-7-3--3--3--3--5-7-|
--5--5--5--5------5--5--5--5------|--3--3--3--3------3--3--3--3------|
--5--5--5--5------5--5--5--5------|--3--3--3--3------3--3--3--3------|


  T T T T T T T T T T T T T T T T T T T T T T T T
--------------------------------------------------|
--------------------------------------------------|
--------------------------------------------------|
--------------------------------------------------|
--4-4-4-4-4-4-4-4-4-4-4-4-1-1-1-1-1-1-1-1-1-1-1-1-|
--------------------------------------------------|


  T T T T T T T T T T T T E   E  E     E  E  E  E  E  E     E  E  E  E  E  E
------------------------------------|--------------------|--------------------|
------------------------------------|--------------------|--------------------|
------------------------------------|--------------------|--------------------|
--------------------------7b--------|--0--0--0--0--0--0--|--0--0--0--0--0--0--|
--0-0-0-0-0-0-0-0-0-0-0-0-----4--7--|--0--0--0--0--0--0--|--0--0--0--0--0--0--|
------------------------------------|--0--0--0--0--0--0--|--0--0--0--0--0--0--|


  E  E  E  E  E  E     E  E  E  E  E  E     E  E  E  E  E  E
--------------------|--------------------|--------------------|
--------------------|--------------------|--------------------|
--------------------|--------------------|--------------------|
--8--8--8--8--8--8--|--8--8--8--8--8--8--|--5--5--5--5--5--5--|
--8--8--8--8--8--8--|--8--8--8--8--8--8--|--5--5--5--5--5--5--|
--8--8--8--8--8--8--|--8--8--8--8--8--8--|--5--5--5--5--5--5--|


  E  E  E  E  E  E     E  E  E  E  E  E     E  E  E  E  E  E
--------------------|--------------------|--------------------|
--------------------|--------------------|--------------------|
--------------------|--------------------|--------------------|
--5--5--5--5--5--5--|--7--7--7--7--7--7--|--7--7--7--7--7--7--|
--5--5--5--5--5--5--|--7--7--7--7--7--7--|--7--7--7--7--7--7--|
--5--5--5--5--5--5--|--7--7--7--7--7--7--|--7--7--7--7--7--7--|


  E  E  E  E  E  E     E  E  E  E  E  E     E  E  E  E  E  E
--------------------|--------------------|--------------------|
--------------------|--------------------|--------------------|
--------------------|--------------------|--------------------|
--0--0--0--0--0--0--|--0--0--0--0--0--0--|--8--8--8--8--8--8--|
--0--0--0--0--0--0--|--0--0--0--0--0--0--|--8--8--8--8--8--8--|
--0--0--0--0--0--0--|--0--0--0--0--0--0--|--8--8--8--8--8--8--|


  E  E  E  E  E  E     E  E  E  E  E  E     E  E  E  E  E  E
--------------------|--------------------|--------------------|
--------------------|--------------------|--------------------|
--------------------|--------------------|--------------------|
--8--8--8--8--8--8--|--5--5--5--5--5--5--|--5--5--5--5--5--5--|
--8--8--8--8--8--8--|--5--5--5--5--5--5--|--5--5--5--5--5--5--|
--8--8--8--8--8--8--|--5--5--5--5--5--5--|--5--5--5--5--5--5--|


                       PM PM PM PM PM PM
  E  E  E  E  E  E     S  S  S  S  S  S  S S S S S S    E  E  E  E  E  E
--------------------|--------------------------------|--------------------|
--------------------|--------------------------------|--------------------|
--------------------|--------------------------------|--------------------|
--7--7--7--7--7--7--|--7--7--7--7--7--7--7-7-7-7-7-7-|--0--------0--------|
--7--7--7--7--7--7--|--7--7--7--7--7--7--7-7-7-7-7-7-|--0--------0--------|
--7--7--7--7--7--7--|--7--7--7--7--7--7--7-7-7-7-7-7-|--0--------0--------|


              W
  S S S S S S Q    E     E  E  E  E  E  E     S S S S S S S S S S E
----------------------|--------------------|-------------------------|
----------------------|--------------------|-------------------------|
----------------------|--------------------|-------------------------|
-------------------0--|--8--7--0--7--5--0--|--------------7---7---7--|
-------------------0--|--8--7--0--7--5--0--|--------------7---7---7--|
--2-3-2-0-2-3-7----0--|--8--7--0--7--5--0--|--2-3-2-0-2-3-7---7---7--|


                                   W
  E  E  E  E  E  E     S S S S S S Q    E     E  E  E  E  E  E
--------------------|----------------------|--------------------|
--------------------|----------------------|--------------------|
--------------------|----------------------|--------------------|
--0--------0--------|-------------------0--|--8--7--0--7--5--0--|
--0--------0--------|-------------------0--|--8--7--0--7--5--0--|
--0--------0--------|--2-3-2-0-2-3-7----0--|--8--7--0--7--5--0--|


  S S S S S S S S S S E     S S S S S S S S S S S S
-------------------------|--------------------------|
-------------------------|--------------------------|
-------------------------|--------------------------|
--------------7---7---7--|--------------------------|
--------------7---7---7--|--5-5-5-8-8-8-7-7-7-4-4-4-|
--2-3-2-0-2-3-7---7---7--|--------------------------|


  PM PM PM PM PM PM PM PM PM PM PM PM
  S  S  S  S  S  S  S  S  S  S  S  S     S S S S S S S S S S S S
--------------------------------------|--------------------------|
--------------------------------------|--------------------------|
--------------------------------------|--------------------------|
--2--0--2--0--2--3--2--0--2--0--2--3--|--------------------------|
--2--0--2--0--2--3--2--0--2--0--2--3--|--4-4-4-7-7-7-5-5-5-1-1-1-|
--2--0--2--0--2--3--2--0--2--0--2--3--|--------------------------|


  PM PM PM PM PM PM PM PM PM PM PM PM PM PM PM PM
  T  T  S  S  T  T  S  S  T  T  S  S  T  T  S  S
--------------------------------------------------|
--------------------------------------------------|
--------------------------------------------------|
--------------------------------------------------|
--0--0--0--0--0--0--0--0--0--0--0--0--0--0--0--0--|
--0--0--0--0--0--0--0--0--0--0--0--0--0--0--0--0--|


  S S S S S S S S S  S  S  S    S S S S S S S S S S S S
-----------------------------|--------------------------|
-----------------------------|--------------------------|
-----------------------------|--------------------------|
-----------------------------|--------------------------|
--5-5-5-8-8-8-7-7-7-10-10-10-|--8-8-8-8-8-8-7-7-7-7-7-7-|
-----------------------------|--------------------------|


  T T T T T T T T T T T T T T T T T T T T T T T T
--------------------------------------------------|
--------------------------------------------------|
--------------------------------------------------|
--------------------------------------------------|
--------------------------------------------------|
--8-8-8-8-8-8-8-8-8-8-8-8-7-7-7-7-7-7-7-7-7-7-7-7-|


                                             PM PM PM PM
  T T T T T T T T T T T T S S S S S S    S S T  T  T  T  S S E  E  E
--------------------------------------|-------------------------------|-----|
--------------------------------------|-------------------------------|-----|
--------------------------2-2---2---2-|-------------------------------|-----|
--------------------------2-2---2---2-|--2-0-------------0-2-0--------|-----|
--------------------------x-x---x---x-|--2-0-0--0--0--0--0-2-0--------|-----|
--2-2-2-2-2-2-2-2-2-2-2-2-------------|--2-0-0--0--0--0--0-2-0--------|-----|


      PM PM PM PM
  S S T  T  T  T  S S S S S S S S    S S S S S S S S S S S S
----------------------------------|--------------------------|
----------------------------------|--------------------------|
----------------------------------|--------------------------|
--2-0-------------0-2-------------|--------------------------|
--2-0-0--0--0--0--0-2---------0-0-|--5-5-0-0---------4-4-0-0-|
--2-0-0--0--0--0--0-2-0-0-3-3-----|----------3-3-2-2---------|


  PM PM PM PM     PM PM PM PM        PM PM PM PM
  S  S  S  S  S S S  S  S  S  S S    S  S  S  S  S S E  E  E
----------------------------------|---------------------------|-----|-----|
----------------------------------|---------------------------|-----|-----|
----------------------------------|---------------------------|-----|-----|
--0--0--0--0------0--0--0--0------|--0--0--0--0------3--5--7--|-----|-----|
--0--0--0--0------0--0--0--0------|--0--0--0--0------3--5--7--|-----|-----|
--0--0--0--0------0--0--0--0------|--0--0--0--0------3--5--7--|-----|-----|


  E  E  E  E  E  E     E  E  E  E  E  E     E  E  E  E  E  E
--------------------|--------------------|--------------------|
--------------------|--------------------|--------------------|
--------------------|--------------------|--------------------|
--0--0--0--0--0--0--|--0--0--0--0--0--0--|--8--8--8--8--8--8--|
--0--0--0--0--0--0--|--0--0--0--0--0--0--|--8--8--8--8--8--8--|
--0--0--0--0--0--0--|--0--0--0--0--0--0--|--8--8--8--8--8--8--|


  E  E  E  E  E  E     E  E  E  E  E  E     E  E  E  E  E  E
--------------------|--------------------|--------------------|
--------------------|--------------------|--------------------|
--------------------|--------------------|--------------------|
--8--8--8--8--8--8--|--5--5--5--5--5--5--|--5--5--5--5--5--5--|
--8--8--8--8--8--8--|--5--5--5--5--5--5--|--5--5--5--5--5--5--|
--8--8--8--8--8--8--|--5--5--5--5--5--5--|--5--5--5--5--5--5--|


  E  E  E  E  E  E     E  E  E  E  E  E     E  E  E  E  E  E
--------------------|--------------------|--------------------|
--------------------|--------------------|--------------------|
--------------------|--------------------|--------------------|
--7--7--7--7--7--7--|--7--7--7--7--7--7--|--0--0--0--0--0--0--|
--7--7--7--7--7--7--|--7--7--7--7--7--7--|--0--0--0--0--0--0--|
--7--7--7--7--7--7--|--7--7--7--7--7--7--|--0--0--0--0--0--0--|


  E  E  E  E  E  E     E  E  E  E  E  E     E  E  E  E  E  E
--------------------|--------------------|--------------------|
--------------------|--------------------|--------------------|
--------------------|--------------------|--------------------|
--0--0--0--0--0--0--|--8--8--8--8--8--8--|--8--8--8--8--8--8--|
--0--0--0--0--0--0--|--8--8--8--8--8--8--|--8--8--8--8--8--8--|
--0--0--0--0--0--0--|--8--8--8--8--8--8--|--8--8--8--8--8--8--|


  E  E  E  E  E  E     E  E  E  E  E  E     E  E  E  E  E  E
--------------------|--------------------|--------------------|
--------------------|--------------------|--------------------|
--------------------|--------------------|--------------------|
--5--5--5--5--5--5--|--5--5--5--5--5--5--|--7--7--7--7--7--7--|
--5--5--5--5--5--5--|--5--5--5--5--5--5--|--7--7--7--7--7--7--|
--5--5--5--5--5--5--|--5--5--5--5--5--5--|--7--7--7--7--7--7--|

                                    (Symphony)

  S S S S S S S S S S S S              Q.     Q.        Q.     Q.
--------------------------|----|----|----------------|----------------|
--------------------------|----|----|----------------|----------------|
--------------------------|----|----|----------------|----------------|
--7-7-7-7-7-7-7-7-7-7-7-7-|----|----|----------------|----------------|
--7-7-7-7-7-7-7-7-7-7-7-7-|----|----|--5------8------|--4------7------|
--7-7-7-7-7-7-7-7-7-7-7-7-|----|----|----------------|----------------|


  H.              H.              Q.     Q.        Q.     Q.
---------------|---------------|----------------|----------------|
---------------|---------------|----------------|----------------|
---------------|---------------|----------------|----------------|
---------------|---------------|----------------|----------------|
--5------------|--4------------|--5------8------|--4------7------|
---------------|---------------|----------------|----------------|


  H.              H.              Q.     Q.        Q.     Q.
---------------|---------------|----------------|----------------|
---------------|---------------|----------------|----------------|
---------------|---------------|----------------|----------------|
---------------|---------------|----------------|----------------|
--5------------|--4------------|--5------8------|--4------7------|
---------------|---------------|----------------|----------------|


  H.              H.              Q.     Q.        Q.     Q.
---------------|---------------|----------------|----------------|
---------------|---------------|----------------|----------------|
---------------|---------------|----------------|----------------|
---------------|---------------|----------------|----------------|
--5------------|--4------------|--5------8------|--4------7------|
---------------|---------------|----------------|----------------|

                               (Distortion Guitar)

  H.                              Q.     Q.        E  E  E  S S S S S S
---------------|---------------|----------------|-----------------------|
---------------|---------------|----------------|-----------------------|
---------------|---------------|----------------|-----------------------|
---------------|---------------|----------------|--6--5--3--x-x---x---x-|
--5------------|---------------|----------------|--6--5--3--x-x---x---x-|
---------------|---------------|--0------0------|--6--5--3--x-x---x---x-|


  E  E  E  E  E  E     S S S S E  S S S S S S    Q.     Q.
--------------------|-------------------------|----------------|
--------------------|-------------------------|----------------|
--------------------|-------------------------|----------------|
--6--5--3--5--3--0--|-------------------------|----------------|
--6--5--3--5--3--0--|----------5--------------|----------------|
--6--5--3--5--3--0--|--0-1-0-3----0-1-0-3-x-x-|--0------0------|


              PM PM PM PM PM           PM PM PM PM
  S S S S S S T  T  S  S  S  S S    E  S  S  S  S    Q.
---------------------------------|-----------------------------------|
---------------------------------|-----------------------------------|
---------------------------------|-----------------------------------|
--5-6-5-3-5-3-0--0--0--0--0--0-0-|--1--0--0--0--0--<>7b--------|
--5-6-5-3-5-3-0--0--0--0--0--0-0-|--1--0--0--0--0--------------------|
--5-6-5-3-5-3-0--0--0--0--0--0-0-|--1--0--0--0--0--------------------|


  PM PM PM PM PM PM PM PM PM PM PM PM PM PM PM PM
  T  T  S  T  T  S  S  S  T  T  S  T  T  S  S  S     Q.     Q.
--------------------------------------------------|----------------|
--------------------------------------------------|----------------|
--------------------------------------------------|----------------|
--0--0--0--0--0--0--0--0--0--0--0--0--0--0--0--0--|----------------|
--0--0--0--0--0--0--0--0--0--0--0--0--0--0--0--0--|----------------|
--0--0--0--0--0--0--0--0--0--0--0--0--0--0--0--0--|--0------0------|


  E  E  E  S S S S S S    E  E  E  E  E  E     S S S S E  S S S S S S
-----------------------|--------------------|-------------------------|
-----------------------|--------------------|-------------------------|
-----------------------|--------------------|-------------------------|
--6--5--3--x-x---x---x-|--6--5--3--5--3--0--|-------------------------|
--6--5--3--x-x---x---x-|--6--5--3--5--3--0--|----------5--------------|
--6--5--3--x-x---x---x-|--6--5--3--5--3--0--|--0-1-0-3----0-1-0-3-x-x-|


                               PM PM PM PM PM           PM PM PM PM
  Q.     Q.        S S S S S S T  T  S  S  S  S S    E  S  S  S  S    Q.
----------------|---------------------------------|-----------------------------------|
----------------|---------------------------------|-----------------------------------|
----------------|---------------------------------|-----------------------------------|
----------------|--5-6-5-3-5-3-0--0--0--0--0--0-0-|--1--0--0--0--0--<>7b--------|
----------------|--5-6-5-3-5-3-0--0--0--0--0--0-0-|--1--0--0--0--0--------------------|
--0------0------|--5-6-5-3-5-3-0--0--0--0--0--0-0-|--1--0--0--0--0--------------------|


  PM PM PM PM PM PM     PM PM PM PM PM PM
  T  T  S  T  T  S  S S T  T  S  T  T  S  S S    E  E  E  E  E  E
----------------------------------------------|--------------------|
----------------------------------------------|--------------------|
----------------------------------------------|--------------------|
--0--0--0--0--0--0------0--0--0--0--0--0------|--0--0--0--0--0--0--|
--0--0--0--0--0--0------0--0--0--0--0--0------|--0--0--0--0--0--0--|
--0--0--0--0--0--0------0--0--0--0--0--0------|--0--0--0--0--0--0--|


  E  E  E  E  E  E     E  E  E  E  E  E     E  E  E  E  E  E
--------------------|--------------------|--------------------|
--------------------|--------------------|--------------------|
--------------------|--------------------|--------------------|
--0--0--0--0--0--0--|--8--8--8--8--8--8--|--8--8--8--8--8--8--|
--0--0--0--0--0--0--|--8--8--8--8--8--8--|--8--8--8--8--8--8--|
--0--0--0--0--0--0--|--8--8--8--8--8--8--|--8--8--8--8--8--8--|


  E  E  E  E  E  E     E  E  E  E  E  E     E  E  E  E  E  E
--------------------|--------------------|--------------------|
--------------------|--------------------|--------------------|
--------------------|--------------------|--------------------|
--5--5--5--5--5--5--|--5--5--5--5--5--5--|--7--7--7--7--7--7--|
--5--5--5--5--5--5--|--5--5--5--5--5--5--|--7--7--7--7--7--7--|
--5--5--5--5--5--5--|--5--5--5--5--5--5--|--7--7--7--7--7--7--|


  E  E  E  E  E  E     E  E  E  E  E  E     E  E  E  E  E  E
--------------------|--------------------|--------------------|
--------------------|--------------------|--------------------|
--------------------|--------------------|--------------------|
--7--7--7--7--7--7--|--0--0--0--0--0--0--|--0--0--0--0--0--0--|
--7--7--7--7--7--7--|--0--0--0--0--0--0--|--0--0--0--0--0--0--|
--7--7--7--7--7--7--|--0--0--0--0--0--0--|--0--0--0--0--0--0--|


  E  E  E  E  E  E     E  E  E  E  E  E     E  E  E  E  E  E
--------------------|--------------------|--------------------|
--------------------|--------------------|--------------------|
--------------------|--------------------|--------------------|
--8--8--8--8--8--8--|--8--8--8--8--8--8--|--5--5--5--5--5--5--|
--8--8--8--8--8--8--|--8--8--8--8--8--8--|--5--5--5--5--5--5--|
--8--8--8--8--8--8--|--8--8--8--8--8--8--|--5--5--5--5--5--5--|

                                                              (Piano)

  E  E  E  E  E  E     E  E  E  E  E  E     E  E  E  E  E  E     Q.     Q.
--------------------|--------------------|--------------------|----------------|
--------------------|--------------------|--------------------|--3------3------|
--------------------|--------------------|--------------------|--2------2------|
--5--5--5--5--5--5--|--7--7--7--7--7--7--|--7--7--7--7--7--7--|--0------0------|
--5--5--5--5--5--5--|--7--7--7--7--7--7--|--7--7--7--7--7--7--|--0------L------|
--5--5--5--5--5--5--|--7--7--7--7--7--7--|--7--7--7--7--7--7--|--0------L------|


  Q.     Q.        Q.     Q.        Q.     Q.        Q.     Q.
----------------|----------------|----------------|----------------|
--3------3------|----------------|----------------|--6------6------|
--2------2------|--6------6------|--6------6------|--7------7------|
--0------0------|--7------7------|--7------7------|--8------8------|
--L------L------|--4------L------|--L------L------|--8------L------|
--L------L------|--L------L------|--L------L------|--8------L------|


  Q.     Q.        Q.     Q.        Q.     Q.        Q.     Q.
----------------|----------------|----------------|----------------|
--6------6------|--5------5------|--5------5------|--3------3------|
--7------7------|--6------6------|--6------6------|--2------2------|
--8------8------|--7------7------|--7------7------|--0------0------|
--L------L------|--7------L------|--L------L------|--0------L------|
--L------L------|--7------L------|--L------L------|--0------L------|


  Q.     Q.        Q.     Q.        Q.     Q.        Q.     Q.
----------------|----------------|----------------|----------------|
--3------3------|----------------|----------------|--6------6------|
--2------2------|--6------6------|--6------6------|--7------7------|
--0------0------|--7------7------|--7------7------|--8------8------|
--L------L------|--4------L------|--L------L------|--8------L------|
--L------L------|--L------L------|--L------L------|--8------L------|

                                                (Distortion Guitar)

                   \1/
  Q.     Q.        H.              H.              E  E  E  E  E  E
----------------|---------------|---------------|--------------------|
--6------6------|--5------------|--L------------|--------------------|
--7------7------|--6------------|--L------------|--------------------|
--8------8------|--7------------|--L------------|--0--------0--------|
--L------L------|--7------------|--L------------|--0--------0--------|
--L------L------|--7------------|--L------------|--0--------0--------|


              W
  S S S S S S Q    E     E  E  E  E  E  E     S S S S S S S S S S E
----------------------|--------------------|-------------------------|
----------------------|--------------------|-------------------------|
----------------------|--------------------|-------------------------|
-------------------0--|--8--7--0--7--5--0--|--------------7---7---7--|
-------------------0--|--8--7--0--7--5--0--|--------------7---7---7--|
--2-3-2-0-2-3-7----0--|--8--7--0--7--5--0--|--2-3-2-0-2-3-7---7---7--|


                                   W
  E  E  E  E  E  E     S S S S S S Q    E     E  E  E  E  E  E
--------------------|----------------------|--------------------|
--------------------|----------------------|--------------------|
--------------------|----------------------|--------------------|
--0--------0--------|-------------------0--|--8--7--0--7--5--0--|
--0--------0--------|-------------------0--|--8--7--0--7--5--0--|
--0--------0--------|--2-3-2-0-2-3-7----0--|--8--7--0--7--5--0--|


                                                            W
  S S S S E  S S S S E     E  E  E  E  E  E     S S S S S S Q    E
------------------------|--------------------|----------------------|
------------------------|--------------------|----------------------|
------------------------|--------------------|----------------------|
--3---3---3--7---7---7--|--0--------0--------|-------------------0--|
--3---3---3--7---7---7--|--0--------0--------|-------------------0--|
--3---3---3--7---7---7--|--0--------0--------|--2-3-2-0-2-3-7----0--|


  E  E  E  E  E  E     S S S S S S S S S S E     E  E  E  E  E  E
--------------------|-------------------------|--------------------|
--------------------|-------------------------|--------------------|
--------------------|-------------------------|--------------------|
--8--7--0--7--5--0--|--------------7---7---7--|--0--------0--------|
--8--7--0--7--5--0--|--------------7---7---7--|--0--------0--------|
--8--7--0--7--5--0--|--2-3-2-0-2-3-7---7---7--|--0--------0--------|


              W
  S S S S S S Q    E     E  E  E  E  E  E     S S S S E  S S S S E
----------------------|--------------------|------------------------|
----------------------|--------------------|------------------------|
----------------------|--------------------|------------------------|
-------------------0--|--8--7--0--7--5--0--|--3---3---3--7---7---7--|
-------------------0--|--8--7--0--7--5--0--|--3---3---3--7---7---7--|
--2-3-2-0-2-3-7----0--|--8--7--0--7--5--0--|--3---3---3--7---7---7--|


  E  E  E  E  E  E     H.              H.              H.
--------------------|---------------|---------------|---------------|
--------------------|---------------|---------------|---------------|
--------------------|---------------|---------------|---------------|
--0--------0--------|--0------------|--L------------|--L------------|
--0--------0--------|--0------------|--L------------|--L------------|
--0--------0--------|--0------------|--L------------|--L------------|


  H.
---------------||
---------------||
---------------||
--L------------||
--L------------||
--L------------||


Guitar 2


(Symphony)

      W                   H        H           W
C#||-------------------|--------------------|-------------------|
G#||-------------------|--------------------|-------------------|
E ||-------------------|--------------------|-------------------|
B ||-------------------|--------------------|-------------------|
F#||--5----------------|--4--------2--------|--1----------------|
B ||-------------------|--------------------|-------------------|


  H        H           W                   H        H
--------------------|-------------------|--------------------|
--------------------|-------------------|--------------------|
--------------------|-------------------|--------------------|
--------------------|-------------------|--------------------|
--------------------|--2----------------|--4--------5--------|
--5--------4--------|-------------------|--------------------|


  W                   W                   E   E   E   E   E   E   E   E
-------------------|-------------------|----------------------------------|
-------------------|-------------------|----------------------------------|
-------------------|-------------------|--7-------7-------7-------7-------|
--2----------------|--4----------------|--7--(7)--7--(7)--7--(7)--7--(7)--|
-------------------|-------------------|--5---L---L---L---L---L---L---L---|
-------------------|-------------------|----------------------------------|


  E   E   E   E   E   E   E   E      E   E   E   E   E   E   E   E
----------------------------------|----------------------------------|
----------------------------------|----------------------------------|
--6-------6-------4-------4-------|--3-------3-------3-------3-------|
--6--(6)--6--(6)--4--(4)--4--(4)--|--3--(3)--3--(3)--3--(3)--3--(3)--|
--4---L---L---L---2---L---L---L---|--1---L---L---L---L---L---L---L---|
----------------------------------|----------------------------------|


  E   E   E   E   E   E   E   E      E   E   E   E   E   E   E   E
----------------------------------|----------------------------------|
----------------------------------|----------------------------------|
----------------------------------|--4-------4-------4-------4-------|
--5-------5-------4-------4-------|--4--(4)--4--(4)--4--(4)--4--(4)--|
--5--(5)--5--(5)--4--(4)--4--(4)--|--2---L---L---L---L---L---L---L---|
--5---L---L---L---4---L---L---L---|----------------------------------|


  E   E   E   E   E   E   E   E      E   E   E   E   E   E   E   E
----------------------------------|----------------------------------|
----------------------------------|--5-------5-------5-------5-------|
--6-------6-------7-------7-------|--4--(4)--4--(4)--4--(4)--4--(4)--|
--6--(6)--6--(6)--7--(7)--7--(7)--|--2---L---L---L---L---L---L---L---|
--4---L---L---L---5---L---L---L---|----------------------------------|
----------------------------------|----------------------------------|


  E   E   E   E   E   E   E   E      E   E   E   E   E   E   E   E
----------------------------------|----------------------------------|
--7-------7-------7-------7-------|----------------------------------|
--6--(6)--6--(6)--6--(6)--6--(6)--|--7-------7-------7-------7-------|
--4---L---L---L---L---L---L---L---|--7--(7)--7--(7)--7--(7)--7--(7)--|
----------------------------------|--5---L---L---L---L---L---L---L---|
----------------------------------|----------------------------------|


  E   E   E   E   E   E   E   E      E   E   E   E   E   E   E   E
----------------------------------|----------------------------------|
----------------------------------|----------------------------------|
--6-------6-------4-------4-------|--3-------3-------3-------3-------|
--6--(6)--6--(6)--4--(4)--4--(4)--|--3--(3)--3--(3)--3--(3)--3--(3)--|
--4---L---L---L---2---L---L---L---|--1---L---L---L---L---L---L---L---|
----------------------------------|----------------------------------|


  E   E   E   E   E   E   E   E      E   E   E   E   E   E   E   E
----------------------------------|----------------------------------|
----------------------------------|----------------------------------|
----------------------------------|--4-------4-------4-------4-------|
--5-------5-------4-------4-------|--4--(4)--4--(4)--4--(4)--4--(4)--|
--5--(5)--5--(5)--4--(4)--4--(4)--|--2---L---L---L---L---L---L---L---|
--5---L---L---L---4---L---L---L---|----------------------------------|


                  \1/  \1/ \1/  \1/    \1/  \1/ \1/  \1/ \1/  \1/ \1/  \1/
  E   E   E   E   E    E   E    E      E    E   E    E   E    E   E    E
------------------------------------|--------------------------------------|
------------------------------------|--5--------5--------5--------5--------|
--6-------6-------7--------7--------|--4---(4)--4---(4)--4---(4)--4---(4)--|
--6--(6)--6--(6)--7---(7)--7---(7)--|--2----L---L----L--------L---L----L---|
--4---L---L---L---5----L---L----L---|--------------------------------------|
------------------------------------|--------------------------------------|


  \1/
  W                   W
-------------------|-------------------|-------------------|-------------------|
--7----------------|--L----------------|-------------------|-------------------|
--6----------------|--L----------------|-------------------|-------------------|
--4----------------|-------------------|-------------------|-------------------|
-------------------|-------------------|-------------------|-------------------|
-------------------|-------------------|-------------------|-------------------|

(Distortion Guitar)

                                   W
  E  E  E  E  E  E     S S S S S S Q    E     E  E  E  E  E  E
--------------------|----------------------|--------------------|
--------------------|----------------------|--------------------|
--------------------|----------------------|--------------------|
--0--------0--------|-------------------0--|--8--7--0--7--5--0--|
--0--------0--------|-------------------0--|--8--7--0--7--5--0--|
--0--------0--------|--2-3-2-0-2-3-7----0--|--8--7--0--7--5--0--|


                                                             W
  S S S S S S S S S S E     E  E  E  E  E  E     S S S S S S Q    E
-------------------------|--------------------|----------------------|
-------------------------|--------------------|----------------------|
-------------------------|--------------------|----------------------|
--------------7---7---7--|--0--------0--------|-------------------0--|
--------------7---7---7--|--0--------0--------|-------------------0--|
--2-3-2-0-2-3-7---7---7--|--0--------0--------|--2-3-2-0-2-3-7----0--|


  E  E  E  E  E  E     S S S S S S S S S S E     E  E  E  E  E  E
--------------------|-------------------------|--------------------|
--------------------|-------------------------|--------------------|
--------------------|-------------------------|--------------------|
--8--7--0--7--5--0--|--------------7---7---7--|--0--------0--------|
--8--7--0--7--5--0--|--------------7---7---7--|--0--------0--------|
--8--7--0--7--5--0--|--2-3-2-0-2-3-7---7---7--|--0--------0--------|

(Piano)

  S  S S  S S  S S  S S  S S  S    S  S  S  S S  S S  S S  S S  S
----17---17---17---17---17---17-|----17-13-12---22--------22------|
----18---18---18---18---18---18-|----18-15-14---20---20---20---20-|
----19---19---19---19---19---19-|----19-15-14---21---21---21---21-|
--------------------------------|---------------------------------|
--------------------------------|---------------------------------|
--0----0----0----0----0----0----|--0----------5----5----5----5----|


  S  S S  S  S  S  S  S  S  S S  S    S  S S  S S  S S  S S  S S  S
----22------21-22-24-25-21-25---25-|----25---25---25---25---25---25-|
----20---20----------------23---23-|----23---23---23---23---23---23-|
----21---19-21-22-24-22-21-22---22-|----22---22---22---22---22---22-|
-----------------------------------|--------------------------------|
-----------------------------------|--------------------------------|
--5----5----------------------8----|--8----8----8----8----8----8----|

                          (Distortion Guitar)

   E   E   E   E   E   E     S S S S S S S S S S S S
--------------24--25--27--|--------------------------|
--17--18--20--22--23--25--|--------------------------|
--14--15--17--------------|--------------------------|
--------------------------|--------------------------|
--------------------------|--5---5---5-8-5---5---5-8-|
--------------------------|----0---0-------0---0-----|


  S S S S S S S S S S S S    S S S S S S S S S S S S
--------------------------|--------------------------|
--------------------------|--------------------------|
--------------------------|--------------------------|
--------------5-----------|--------------------------|
--5---5---5-8---8-7-8-7-5-|--4---4---4-7-4---4---4-5-|
----0---0-----------------|----0---0-------0---0-----|


                             PM PM PM PM     PM PM PM PM
  S S S S S S S S S S S S    S  S  S  S  S S S  S  S  S  S S
--------------------------|----------------------------------|
--------------------------|----------------------------------|
--------------------------|----------------------------------|
--------------------------|--5--5--5--5--7-8-5--5--5--5--7-8-|
--4---4---4-7-4-5-7-5-7-8-|--5--5--5--5------5--5--5--5------|
----0---0-----------------|--5--5--5--5------5--5--5--5------|


  PM PM PM PM     PM PM PM PM
  S  S  S  S  S S S  S  S  S  S S
----------------------------------|
----------------------------------|
----------------------------------|
--3--3--3--3--5-7-3--3--3--3--5-7-|
--3--3--3--3------3--3--3--3------|
--3--3--3--3------3--3--3--3------|


  T T T T T T T T T T T T T T T T T T T T T T T T
--------------------------------------------------|
--------------------------------------------------|
--------------------------------------------------|
--------------------------------------------------|
--4-4-4-4-4-4-4-4-4-4-4-4-1-1-1-1-1-1-1-1-1-1-1-1-|
--------------------------------------------------|


                                       PM PM PM PM PM PM    PM PM PM PM PM PM
  T T T T T T T T T T T T E   E  E     E  E  E  E  E  E     E  E  E  E  E  E
------------------------------------|--------------------|--------------------|
------------------------------------|--------6--------6--|--------6--------6--|
------------------------------------|-----7--------7-----|-----7--------7-----|
--------------------------7b--------|--7--------7--------|--7--------7--------|
--0-0-0-0-0-0-0-0-0-0-0-0-----4--7--|--------------------|--------------------|
------------------------------------|--------------------|--------------------|


  PM PM PM PM PM PM    PM PM PM PM PM PM    PM PM PM PM PM PM
  E  E  E  E  E  E     E  E  E  E  E  E     E  E  E  E  E  E
--------------------|--------------------|--------------------|
--------6--------6--|--------6--------6--|--------3--------3--|
-----7--------7-----|-----7--------7-----|-----5--------5-----|
--8--------8--------|--8--------8--------|--5--------5--------|
--------------------|--------------------|--------------------|
--------------------|--------------------|--------------------|


  PM PM PM PM PM PM    PM PM PM PM PM PM    PM PM PM PM  PM PM
  E  E  E  E  E  E     E  E  E  E  E  E     E  E  E  E   E  E
--------------------|--------------------|---------------------|
--------6--------5--|--------6--------5--|--------5------------|
-----5--------5-----|-----6--------6-----|-----6--------10--9--|
--5--------5--------|--7--------7--------|--7--------7---------|
--------------------|--------------------|---------------------|
--------------------|--------------------|---------------------|


  PM PM PM PM PM PM    PM PM PM PM PM PM    PM PM PM PM PM PM
  E  E  E  E  E  E     E  E  E  E  E  E     E  E  E  E  E  E
--------------------|--------------------|--------------------|
--------6--------6--|--------6--------6--|--------6--------6--|
-----7--------7-----|-----7--------7-----|-----7--------7-----|
--7--------7--------|--7--------7--------|--8--------8--------|
--------------------|--------------------|--------------------|
--------------------|--------------------|--------------------|


  PM PM PM PM PM PM    PM PM PM PM PM PM    PM PM PM PM PM PM
  E  E  E  E  E  E     E  E  E  E  E  E     E  E  E  E  E  E
--------------------|--------------------|--------------------|
--------6--------6--|--------3--------3--|--------6--------5--|
-----7--------7-----|-----5--------5-----|-----5--------5-----|
--8--------8--------|--5--------5--------|--5--------5--------|
--------------------|--------------------|--------------------|
--------------------|--------------------|--------------------|


  PM PM PM PM PM PM    PM PM PM PM  PM PM
  E  E  E  E  E  E     E  E  E  E   E  E     E  E  E  E  E  E
--------------------|---------------------|--------------------|
--------6--------5--|--------5------------|--------------------|
-----6--------6-----|-----6--------10--9--|--------------------|
--7--------7--------|--7--------7---------|--0--------0--------|
--------------------|---------------------|--0--------0--------|
--------------------|---------------------|--0--------0--------|


              W
  S S S S S S Q    E     E  E  E  E  E  E     S S S S S S S S S S E
----------------------|--------------------|-------------------------|
----------------------|--------------------|-------------------------|
----------------------|--------------------|-------------------------|
-------------------0--|--8--7--0--7--5--0--|--------------7---7---7--|
-------------------0--|--8--7--0--7--5--0--|--------------7---7---7--|
--2-3-2-0-2-3-7----0--|--8--7--0--7--5--0--|--2-3-2-0-2-3-7---7---7--|


                                   W
  E  E  E  E  E  E     S S S S S S Q    E     E  E  E  E  E  E
--------------------|----------------------|--------------------|
--------------------|----------------------|--------------------|
--------------------|----------------------|--------------------|
--0--------0--------|-------------------0--|--8--7--0--7--5--0--|
--0--------0--------|-------------------0--|--8--7--0--7--5--0--|
--0--------0--------|--2-3-2-0-2-3-7----0--|--8--7--0--7--5--0--|


  S S S S S S S S S S E     S S S  S  S  S  S  S  S S S S
-------------------------|--------------------------------|-----|
-------------------------|--------------------------------|-----|
-------------------------|--------------------------------|-----|
--------------7---7---7--|--------------------------------|-----|
--------------7---7---7--|--------------------------------|-----|
--2-3-2-0-2-3-7---7---7--|--8-8-8-12-12-12-11-11-11-7-7-7-|-----|


  S S S  S  S  S S S S S S S          S S S  S  S  S  S  S  S  S  S  S
-----------------------------|-----|-----------------------------------|
-----------------------------|-----|-----------------------------------|
-----------------------------|-----|-----------------------------------|
-----------------------------|-----|-----------------------------------|
-----------------------------|-----|-----------------------------------|
--7-7-7-11-11-11-8-8-8-5-5-5-|-----|--8-8-8-12-12-12-11-11-11-14-14-14-|


   S  S  S  S  S  S  S  S  S  S  S  S
--------------------------------------|
--------------------------------------|
--------------------------------------|
--------------------------------------|
--------------------------------------|
--12-12-12-12-12-12-11-11-11-11-11-11-|


  T T T T T T T T T T T T T T T T T T T T T T T T
--------------------------------------------------|
--------------------------------------------------|
--------------------------------------------------|
--------------------------------------------------|
--------------------------------------------------|
--8-8-8-8-8-8-8-8-8-8-8-8-7-7-7-7-7-7-7-7-7-7-7-7-|


                                             PM PM PM PM
  T T T T T T T T T T T T S S S S S S    S S T  T  T  T  S S E  E  E
--------------------------------------|-------------------------------|-----|
--------------------------------------|-------------------------------|-----|
--------------------------2-2---2---2-|-------------------------------|-----|
--------------------------2-2---2---2-|--2-0-------------0-2-0--------|-----|
--------------------------x-x---x---x-|--2-0-0--0--0--0--0-2-0--------|-----|
--2-2-2-2-2-2-2-2-2-2-2-2-------------|--2-0-0--0--0--0--0-2-0--------|-----|


      PM PM PM PM
  S S T  T  T  T  S S S S S S S S    S S S S S S S S S S S S
----------------------------------|--------------------------|
----------------------------------|--------------------------|
----------------------------------|--------------------------|
--2-0-------------0-2-------------|--7-7---------6-6---------|
--2-0-0--0--0--0--0-2-----5-5-8-8-|------8-8-5-5-----7-7-4-4-|
--2-0-0--0--0--0--0-2-0-0---------|--------------------------|


  PM PM PM PM     PM PM PM PM        PM PM PM PM
  S  S  S  S  S S S  S  S  S  S S    S  S  S  S  S S E  E  E
----------------------------------|---------------------------|-----|-----|
----------------------------------|---------------------------|-----|-----|
----------------------------------|---------------------------|-----|-----|
--0--0--0--0------0--0--0--0------|--0--0--0--0------3--5--7--|-----|-----|
--0--0--0--0------0--0--0--0------|--0--0--0--0------3--5--7--|-----|-----|
--0--0--0--0------0--0--0--0------|--0--0--0--0------3--5--7--|-----|-----|


  PM PM PM PM PM PM    PM PM PM PM PM PM    PM PM PM PM PM PM
  E  E  E  E  E  E     E  E  E  E  E  E     E  E  E  E  E  E
--------------------|--------------------|--------------------|
--------6--------6--|--------6--------6--|--------6--------6--|
-----7--------7-----|-----7--------7-----|-----7--------7-----|
--7--------7--------|--7--------7--------|--8--------8--------|
--------------------|--------------------|--------------------|
--------------------|--------------------|--------------------|


  PM PM PM PM PM PM    PM PM PM PM PM PM    PM PM PM PM PM PM
  E  E  E  E  E  E     E  E  E  E  E  E     E  E  E  E  E  E
--------------------|--------------------|--------------------|
--------6--------6--|--------3--------3--|--------6--------5--|
-----7--------7-----|-----5--------5-----|-----5--------5-----|
--8--------8--------|--5--------5--------|--5--------5--------|
--------------------|--------------------|--------------------|
--------------------|--------------------|--------------------|


  PM PM PM PM PM PM    PM PM PM PM  PM PM    PM PM PM PM PM PM
  E  E  E  E  E  E     E  E  E  E   E  E     E  E  E  E  E  E
--------------------|---------------------|--------------------|
--------6--------5--|--------5------------|--------6--------6--|
-----6--------6-----|-----6--------10--9--|-----7--------7-----|
--7--------7--------|--7--------7---------|--7--------7--------|
--------------------|---------------------|--------------------|
--------------------|---------------------|--------------------|


  PM PM PM PM PM PM    PM PM PM PM PM PM    PM PM PM PM PM PM
  E  E  E  E  E  E     E  E  E  E  E  E     E  E  E  E  E  E
--------------------|--------------------|--------------------|
--------6--------6--|--------6--------6--|--------6--------6--|
-----7--------7-----|-----7--------7-----|-----7--------7-----|
--7--------7--------|--8--------8--------|--8--------8--------|
--------------------|--------------------|--------------------|
--------------------|--------------------|--------------------|


  PM PM PM PM PM PM    PM PM PM PM PM PM    PM PM PM PM PM PM
  E  E  E  E  E  E     E  E  E  E  E  E     E  E  E  E  E  E
--------------------|--------------------|--------------------|
--------3--------3--|--------6--------5--|--------6--------5--|
-----5--------5-----|-----5--------5-----|-----6--------6-----|
--5--------5--------|--5--------5--------|--7--------7--------|
--------------------|--------------------|--------------------|
--------------------|--------------------|--------------------|

                                 (Symphony)

  PM PM PM PM  PM PM
  E  E  E  E   E  E                 H.              H.
---------------------|-----|-----|---------------|---------------|
--------5------------|-----|-----|---------------|---------------|
-----6--------10--9--|-----|-----|---------------|---------------|
--7--------7---------|-----|-----|---------------|---------------|
---------------------|-----|-----|--5------------|--L------------|
---------------------|-----|-----|---------------|---------------|


  H.              H.              H.              H.              H.
---------------|---------------|---------------|---------------|---------------|
---------------|---------------|---------------|---------------|---------------|
---------------|---------------|---------------|---------------|---------------|
---------------|---------------|---------------|---------------|---------------|
--1------------|--0------------|--5------------|--L------------|--1------------|
---------------|---------------|---------------|---------------|---------------|


  H.              H.              H.              H.              H.
---------------|---------------|---------------|---------------|---------------|
---------------|---------------|---------------|---------------|---------------|
---------------|---------------|---------------|---------------|---------------|
---------------|---------------|---------------|---------------|---------------|
--0------------|--5------------|--L------------|--1------------|--0------------|
---------------|---------------|---------------|---------------|---------------|


  H.              H.              H.
---------------|---------------|---------------|---------------|
---------------|---------------|---------------|---------------|
---------------|---------------|---------------|---------------|
---------------|---------------|---------------|---------------|
--5------------|--L------------|--1------------|---------------|
---------------|---------------|---------------|---------------|

(Distortion Guitar)

  Q.     Q.        E  E  E  S S S S S S    E  E  E  E  E  E
----------------|-----------------------|--------------------|
----------------|-----------------------|--------------------|
----------------|-----------------------|--------------------|
----------------|--6--5--3--x-x---x---x-|--6--5--3--5--3--0--|
----------------|--6--5--3--x-x---x---x-|--6--5--3--5--3--0--|
--0------0------|--6--5--3--x-x---x---x-|--6--5--3--5--3--0--|


                                                         PM PM PM PM PM
  S S S S E  S S S S S S    Q.     Q.        S S S S S S T  T  S  S  S  S S
-------------------------|----------------|---------------------------------|
-------------------------|----------------|---------------------------------|
-------------------------|----------------|---------------------------------|
-------------------------|----------------|--5-6-5-3-5-3-0--0--0--0--0--0-0-|
----------5--------------|----------------|--5-6-5-3-5-3-0--0--0--0--0--0-0-|
--0-1-0-3----0-1-0-3-x-x-|--0------0------|--5-6-5-3-5-3-0--0--0--0--0--0-0-|


     PM PM PM PM           PM PM PM PM PM PM     PM PM PM PM PM PM
  E  S  S  S  S  Q.        T  T  S  T  T  S  S S T  T  S  T  T  S  S S
------------------------|----------------------------------------------|
------------------------|----------------------------------------------|
------------------------|----------------------------------------------|
--1--0--0--0--0---------|--0--0--0--0--0--0------0--0--0--0--0--0------|
--1--0--0--0--0---------|--0--0--0--0--0--0------0--0--0--0--0--0------|
--1--0--0--0--0---------|--0--0--0--0--0--0------0--0--0--0--0--0------|


  Q.     Q.        E  E  E  S S S S S S    E  E  E  E  E  E
----------------|-----------------------|--------------------|
----------------|-----------------------|--------------------|
----------------|-----------------------|--------------------|
----------------|--6--5--3--x-x---x---x-|--6--5--3--5--3--0--|
----------------|--6--5--3--x-x---x---x-|--6--5--3--5--3--0--|
--0------0------|--6--5--3--x-x---x---x-|--6--5--3--5--3--0--|


                                                         PM PM PM PM PM
  S S S S E  S S S S S S    Q.     Q.        S S S S S S T  T  S  S  S  S S
-------------------------|----------------|---------------------------------|
-------------------------|----------------|---------------------------------|
-------------------------|----------------|---------------------------------|
-------------------------|----------------|--5-6-5-3-5-3-0--0--0--0--0--0-0-|
----------5--------------|----------------|--5-6-5-3-5-3-0--0--0--0--0--0-0-|
--0-1-0-3----0-1-0-3-x-x-|--0------0------|--5-6-5-3-5-3-0--0--0--0--0--0-0-|


     PM PM PM PM           PM PM PM PM PM PM     PM PM PM PM PM PM
  E  S  S  S  S  Q.        T  T  S  T  T  S  S S T  T  S  T  T  S  S S
------------------------|----------------------------------------------|
------------------------|----------------------------------------------|
------------------------|----------------------------------------------|
--1--0--0--0--0---------|--0--0--0--0--0--0------0--0--0--0--0--0------|
--1--0--0--0--0---------|--0--0--0--0--0--0------0--0--0--0--0--0------|
--1--0--0--0--0---------|--0--0--0--0--0--0------0--0--0--0--0--0------|


              W                    W
    Q.        Q.          Q.       Q.
----------------------|--12b------12b--------------------|
----------------------|----------------------------------|
----------------------|----------------------------------|
--<>7b------<>7b------|----------------------|
----------------------|----------------------------------|
----------------------|----------------------------------|


   T  T  T  T  S  S  S S  S S  S  S  S  S
--12-13-12-10-----------------------------|
--------------13--------------------------|
-----------------12-10-9-10-9-------------|
------------------------------12-14-10-12-|
------------------------------------------|
------------------------------------------|


      PM    PM    PM    PM    PM
   S  S  S  S  S  S  S  S  S  S  S  S     H         E   S   T  T
--------------------------10----13-15-|--15b--------L--15b-13-12-|
--------------10----13-------10-------|--------------------------|
--10----12-------10----10-------------|--------------------------|
-----10----10-------------------------|--------------------------|
--------------------------------------|--------------------------|
--------------------------------------|--------------------------|


   Q.       Q      S   T  T     H.
--13b------15b----15b-13-12-|--19b------------|
----------------------------|-----------------|
----------------------------|-----------------|
----------------------------|-----------------|
----------------------------|-----------------|
----------------------------|-----------------|


   T  T  S  S  S  S  S  S  S  S  S  T  T  T  T     Q.     E   Q
--17-18-17-16-17-13-17-12-17----17----------13-|-------------------|
-----------------------------15----13-15-17----|--15------L\-------|
-----------------------------------------------|-------------------|
-----------------------------------------------|-------------------|
-----------------------------------------------|-------------------|
-----------------------------------------------|-------------------|


  PM PM PM PM PM PM    PM PM PM PM PM PM    PM PM PM PM PM PM
  E  E  E  E  E  E     E  E  E  E  E  E     E  E  E  E  E  E
--------------------|--------------------|--------------------|
--------6--------6--|--------6--------6--|--------6--------6--|
-----7--------7-----|-----7--------7-----|-----7--------7-----|
--7--------7--------|--8--------8--------|--8--------8--------|
--------------------|--------------------|--------------------|
--------------------|--------------------|--------------------|


  PM PM PM PM PM PM    PM PM PM PM PM PM    PM PM PM PM PM PM
  E  E  E  E  E  E     E  E  E  E  E  E     E  E  E  E  E  E
--------------------|--------------------|--------------------|
--------3--------3--|--------6--------5--|--------6--------5--|
-----5--------5-----|-----5--------5-----|-----6--------6-----|
--5--------5--------|--5--------5--------|--7--------7--------|
--------------------|--------------------|--------------------|
--------------------|--------------------|--------------------|


  PM PM PM PM  PM PM
  E  E  E  E   E  E
---------------------|-----|-----|-----|-----|-----|-----|-----|-----|-----|
--------5------------|-----|-----|-----|-----|-----|-----|-----|-----|-----|
-----6--------10--9--|-----|-----|-----|-----|-----|-----|-----|-----|-----|
--7--------7---------|-----|-----|-----|-----|-----|-----|-----|-----|-----|
---------------------|-----|-----|-----|-----|-----|-----|-----|-----|-----|
---------------------|-----|-----|-----|-----|-----|-----|-----|-----|-----|


(5:56)


                                            E  E  E  E  E  E
-----|-----|-----|-----|-----|-----|-----|--------------------|
-----|-----|-----|-----|-----|-----|-----|--------------------|
-----|-----|-----|-----|-----|-----|-----|--------------------|
-----|-----|-----|-----|-----|-----|-----|--0--------0--------|
-----|-----|-----|-----|-----|-----|-----|--0--------0--------|
-----|-----|-----|-----|-----|-----|-----|--0--------0--------|


              W
  S S S S S S Q    E     E  E  E  E  E  E     S S S S S S S S S S E
----------------------|--------------------|-------------------------|
----------------------|--------------------|-------------------------|
----------------------|--------------------|-------------------------|
-------------------0--|--8--7--0--7--5--0--|--------------7---7---7--|
-------------------0--|--8--7--0--7--5--0--|--------------7---7---7--|
--2-3-2-0-2-3-7----0--|--8--7--0--7--5--0--|--2-3-2-0-2-3-7---7---7--|


                                   W
  E  E  E  E  E  E     S S S S S S Q    E     E  E  E  E  E  E
--------------------|----------------------|--------------------|
--------------------|----------------------|--------------------|
--------------------|----------------------|--------------------|
--0--------0--------|-------------------0--|--8--7--0--7--5--0--|
--0--------0--------|-------------------0--|--8--7--0--7--5--0--|
--0--------0--------|--2-3-2-0-2-3-7----0--|--8--7--0--7--5--0--|


                                                            W
  S S S S E  S S S S E     E  E  E  E  E  E     S S S S S S Q    E
------------------------|--------------------|----------------------|
------------------------|--------------------|----------------------|
------------------------|--------------------|----------------------|
--3---3---3--7---7---7--|--0--------0--------|-------------------0--|
--3---3---3--7---7---7--|--0--------0--------|-------------------0--|
--3---3---3--7---7---7--|--0--------0--------|--2-3-2-0-2-3-7----0--|


  E  E  E  E  E  E     S S S S S S S S S S E     E  E  E  E  E  E
--------------------|-------------------------|--------------------|
--------------------|-------------------------|--------------------|
--------------------|-------------------------|--------------------|
--8--7--0--7--5--0--|--------------7---7---7--|--0--------0--------|
--8--7--0--7--5--0--|--------------7---7---7--|--0--------0--------|
--8--7--0--7--5--0--|--2-3-2-0-2-3-7---7---7--|--0--------0--------|


              W
  S S S S S S Q    E     E  E  E  E  E  E     S S S S E  S S S S E
----------------------|--------------------|------------------------|
----------------------|--------------------|------------------------|
----------------------|--------------------|------------------------|
-------------------0--|--8--7--0--7--5--0--|--3---3---3--7---7---7--|
-------------------0--|--8--7--0--7--5--0--|--3---3---3--7---7---7--|
--2-3-2-0-2-3-7----0--|--8--7--0--7--5--0--|--3---3---3--7---7---7--|


  E  E  E  E  E  E     H.              H.              H.
--------------------|---------------|---------------|---------------|
--------------------|---------------|---------------|---------------|
--------------------|---------------|---------------|---------------|
--0--------0--------|--0------------|--L------------|--L------------|
--0--------0--------|--0------------|--L------------|--L------------|
--0--------0--------|--0------------|--L------------|--L------------|


  H.
---------------||
---------------||
---------------||
--L------------||
--L------------||
--L------------||


Duration Legend
---------------
W - whole
H - half
Q - quarter
E - 8th
S - 16th
T - 32nd
X - 64th
. - note dotted
|-n-|  - n-tuplets


Tablature Legend
----------------
L - tied note
x - dead note
g - grace note
(n) - ghost note
> - accentuded note
NH - natural harmonic
AH - artificial harmonic
TH - tapped harmonic
SH - semi harmonic
PH - pitch harmonic
h - hammer on
p - pull off
b - bend
br - bendRelease
pb - preBend
pbr - preBendRelease
brb - bendReleaseBend
\n/ - tremolo bar dip
\n - tremolo bar dive
-/n - tremolo bar Release up
/n\ - tremolo bar inverted dip
/n - tremolo bar return
-\n - tremolo bar Release down
S - shift slide
s - legato slide
/ -  slide into from below or out of upwards
\ -  slide into from above or out of downwards
~ - vibrato
W - wide vibrato
tr - trill
TP - tremolo picking
T - tapping
S - slap
P - pop
< - fade in
^ - brush up
v - brush down


That is all! I hope this helped, and be sure to check out my cover if you are
having problems with the tab. Thanks, oh and one last thing... ROCK OUT!!!!
comments
We did not receive enough feedback on this tab! Please rate:
print report bad tab
1 2 3 4 5
I want to post or [tab]
guest
You may want to rate the tab now too:
select rating
Please do not post tabs as comments. Select "correction" instead!