Oops, an error
Loading. Please wait.

Enferma Tab

8 views 1 this week
no commentswrite comment
1 2 3 4 5
please rate
add to favorites launch autoscroll
font size
0
reset
Autoscroll
+/-
esc
set tempo
stop
Difficulty
novice
WARNING: You are trying to view
                                    content from Ultimate-Guitar.com
                                    in an unauthorized application,
                                    which is prohibited.

                                    Please use an official Ultimate
                                    Guitar Tabs application for iPhone,
                                    iPad or Android to access legitimate
                                    chords, guitar, bass, and drum tabs
                                    from Ultimate-Guitar.com database.

                                    Type "ultimate guitar tabs" in Apple
                                    App Store's or Android Market's
                                    search to find the application.
Title: Enferma
Artist: Crudamata
Album: El mundo da vueltas
Copyright: 2010
Tempo = 150
Steel Guitar

Legend
L - tied note
x - dead note
h - hammer on/pull off
b - bend
s - slide
~ - vibrato
g - ghost note
> - accentuated note
t - trill
M - palm mute
. - staccato
P - popping (bass)
S - slapping (bass)
+ - tapping
W - wide vibrato
< - fade in
w - whammy bar
= - tremolo picking
v - brush up
^ - brush down
V - pick stroke up
n - pick stroke down


E |-------|-------|-------|-------|--2-----2-----2-----2h-3h----2-----2-------|
B |-------|-------|-------|-------|--3-----3-----3-----3--------------3-------|
G |-------|-------|-------|-------|--2-----2-----2-----2--------------2-------|
D |-------|-------|-------|-------|--0M----0M----0M----0M-------------0M------|
A |-------|-------|-------|-------|-------------------------------------------|
E |-------|-------|-------|-------|-------------------------------------------|


--2-----2-----2-----2h-3h----2-----2-------|
--3-----3-----3-----3--------------3-------|
--2-----2-----2-----2--------------2-------|
--0M----0M----0M----0M-------------0M------|
-------------------------------------------|
-------------------------------------------|


--2-----2-----2-----2h-3h----2-----2-------|
--3-----3-----3-----3--------------3-------|
--2-----2-----2-----2--------------2-------|
--0M----0M----0M----0M-------------0M------|
-------------------------------------------|
-------------------------------------------|


--2-----2-----2-----2h-3h----2-----2-------|
--3-----3-----3-----3--------------3-------|
--2-----2-----2-----2--------------2-------|
--0M----0M----0M----0M-------------0M------|
-------------------------------------------|
-------------------------------------------|


--2-----2-----2-----2h-3h----2-----2-------|
--3-----3-----3-----3--------------3-------|
--2-----2-----2-----2--------------2-------|
--0M----0M----0M----0M-------------0M------|
-------------------------------------------|
-------------------------------------------|


--2-----2-----2-----2--3h----2-----2-------|
--3-----3-----3-----3--------------3-------|
--2-----2-----2-----2--------------2-------|
--0M----0M----0M----0M-------------0M------|
-------------------------------------------|
-------------------------------------------|


--2-----2-----2-----2h-3h----2-----2-------|
--3-----3-----3-----3--------------3-------|
--2-----2-----2-----2--------------2-------|
--0M----0M----0M----0M-------------0M------|
-------------------------------------------|
-------------------------------------------|


--2-----2-----2-----2--3h----2-----2-------|----------------|----------------|
--3-----3-----3-----3--------------3-------|----------------|----------------|
--2-----2-----2-----2--------------2-------|----------------|----------------|
--0M----0M----0M----0M-------------0M------|--4--4--4--4----|--5--5--5--5----|
-------------------------------------------|--4--4--4--4----|--5--5--5--5----|
-------------------------------------------|--2--2--2--2----|--3--3--3--3----|


----------------|----------------|----------------|----------------|
----------------|----------------|----------------|----------------|
----------------|----------------|----------------|----------------|
--7--7--7--12---|--4--4--4--4----|--5--5--5--5----|--7--7--7--12---|
--7--7--7--12---|--4--4--4--4----|--5--5--5--5----|--7--7--7--12---|
--5--5--5s-10---|--2--2--2--2----|--3--3--3--3----|--5--5--5s-10---|


----------------|----------------|----------------|----------------|
----------------|----------------|----------------|----------------|
----------------|----------------|----------------|----------------|
--4--4--4--4----|--5--5--5--5----|--7--7--7--12---|--4--4--4--4----|
--4--4--4--4----|--5--5--5--5----|--7--7--7--12---|--4--4--4--4----|
--2--2--2--2----|--3--3--3--3----|--5--5--5s-10---|--2--2--2--2----|


----------------|----------------|--2----|-------|-------|-------|
----------------|----------------|--3----|-------|-------|-------|
----------------|----------------|--2----|-------|-------|-------|
--5--5--5--5----|--7--7--7-------|--0----|-------|-------|-------|
--5--5--5--5----|--7--7--7-------|-------|-------|-------|-------|
--3--3--3--3----|--5--5--5s------|-------|-------|-------|-------|


----------------|----------------|----------------|----------------|
----------------|----------------|----------------|----------------|
----------------|----------------|----------------|----------------|
--4--4--4--4----|--5--5--5--5----|--7--7--7--12---|--4--4--4--4----|
--4--4--4--4----|--5--5--5--5----|--7--7--7--12---|--4--4--4--4----|
--2--2--2--2----|--3--3--3--3----|--5--5--5s-10---|--2--2--2--2----|


----------------|-------------|----------------|----------------|
----------------|-------------|----------------|----------------|
----------------|-------------|----------------|----------------|
--5--5--5--5----|--7--7--7----|--4--4--4--4----|--5--5--5--5----|
--5--5--5--5----|--7--7--7----|--4--4--4--4----|--5--5--5--5----|
--3--3--3--3----|--5--5--5----|--2--2--2--2----|--3--3--3--3----|


----------------|----------------|----------------|----------------|
----------------|----------------|----------------|----------------|
----------------|----------------|----------------|----------------|
--7--7--7--7----|--4--4--4--4----|--5--5--5--5----|--7--7--7--12---|
--7--7--7--7----|--4--4--4--4----|--5--5--5--5----|--7--7--7--12---|
--5--5--5s-5s---|--2--2--2--2----|--3--3--3--3----|--5--5--5s-10---|


--5--5--5--5----|--5--5--5--5----|--5--5--5--5----|--5--5--5--5----|
--7--7--7--7----|--7--7--7--7----|--7--7--7--7----|--7--7--7--7----|
--7--7--7--7----|--7--7--7--7----|--7--7--7--7----|--7--7--7--7----|
--7--7--7--7----|--7--7--7--7----|--7--7--7--7----|--7--7--7--7----|
--5--5--5--5----|--5--5--5--5----|--5--5--5--5----|--5--5--5--5----|
----------------|----------------|----------------|----------------|


--5--5--5--5----|--5--5--5--5----|--5--5--5--5----|--5--5--5--5----|
--7--7--7--7----|--7--7--7--7----|--7--7--7--7----|--7--7--7--7----|
--7--7--7--7----|--7--7--7--7----|--7--7--7--7----|--7--7--7--7----|
--7--7--7--7----|--7--7--7--7----|--7--7--7--7----|--7--7--7--7----|
--5--5--5--5----|--5--5--5--5----|--5--5--5--5----|--5--5--5--5----|
----------------|----------------|----------------|----------------|


----------------|----------------|----------------|----------------|
----------------|----------------|----------------|----------------|
----------------|----------------|----------------|----------------|
--4--4--4--4----|--5--5--5--5----|--7--7--7--12---|--4--4--4--4----|
--4--4--4--4----|--5--5--5--5----|--7--7--7--12---|--4--4--4--4----|
--2--2--2--2----|--3--3--3--3----|--5--5--5s-10---|--2--2--2--2----|


----------------|----------------|----------------|----------------|
----------------|----------------|----------------|----------------|
----------------|----------------|----------------|----------------|
--5--5--5--5----|--7--7--7--7----|--4--4--4--4----|--5--5--5--5----|
--5--5--5--5----|--7--7--7--7----|--4--4--4--4----|--5--5--5--5----|
--3--3--3--3----|--5--5--5--5----|--2--2--2--2----|--3--3--3--3----|


----------------|----------------|----------------|----------------|--2----|
----------------|----------------|----------------|----------------|--3----|
----------------|----------------|----------------|----------------|--2----|
--7--7--7--12---|--4--4--4--4----|--5--5--5--5----|--7--7--7--12---|--0----|
--7--7--7--12---|--4--4--4--4----|--5--5--5--5----|--7--7--7--12---|-------|
--5--5--5s-10---|--2--2--2--2----|--3--3--3--3----|--5--5--5s-10---|-------|


-------|-------|-------|----------------|----------------|----------------|
-------|-------|-------|----------------|----------------|----------------|
-------|-------|-------|----------------|----------------|----------------|
-------|-------|-------|--4--4--4--4----|--5--5--5--5----|--7--7--7--12---|
-------|-------|-------|--4--4--4--4----|--5--5--5--5----|--7--7--7--12---|
-------|-------|-------|--2--2--2--2----|--3--3--3--3----|--5--5--5s-10---|


----------------|----------------|----------------|----------------|
----------------|----------------|----------------|----------------|
----------------|----------------|----------------|----------------|
--4--4--4--4----|--5--5--5--5----|--7--7--7--7----|--4--4--4--4----|
--4--4--4--4----|--5--5--5--5----|--7--7--7--7----|--4--4--4--4----|
--2--2--2--2----|--3--3--3--3----|--5--5--5--5----|--2--2--2--2----|


----------------|----------------|----------------|----------------|
----------------|----------------|----------------|----------------|
----------------|----------------|----------------|----------------|
--5--5--5--5----|--7--7--7--12---|--4--4--4--4----|--5--5--5--5----|
--5--5--5--5----|--7--7--7--12---|--4--4--4--4----|--5--5--5--5----|
--3--3--3--3----|--5--5--5s-10---|--2--2--2--2----|--3--3--3--3----|


----------------|----------------|----------------|----------------|
----------------|----------------|----------------|----------------|
----------------|--7--7--7--7----|--7--7--7--7----|--7--7--7--7----|
--7--7--7--12---|--7--7--7--7----|--7--7--7--7----|--7--7--7--7----|
--7--7--7--12---|--5--5--5--5----|--5--5--5--5----|--5--5--5--5----|
--5--5--5s-10---|--5--5--5--5----|--5--5--5--5----|--5--5--5--5----|


----------------|----------------|----------------|----------------|
----------------|----------------|----------------|----------------|
--7--7--7--7----|--7--7--7--7----|--7--7--7--7----|--7--7--7--7----|
--7--7--7--7----|--7--7--7--7----|--7--7--7--7----|--7--7--7--7----|
--5--5--5--5----|--5--5--5--5----|--5--5--5--5----|--5--5--5--5----|
--5--5--5--5----|--5--5--5--5----|--5--5--5--5----|--5--5--5--5----|


----------------|----------------|----------------|----------------|
----------------|----------------|----------------|----------------|
--7--7--7--7----|----------------|----------------|----------------|
--7--7--7--7----|--4--4--4--4----|--5--5--5--5----|--7--7--7--12---|
--5--5--5--5----|--4--4--4--4----|--5--5--5--5----|--7--7--7--12---|
--5--5--5--5----|--2--2--2--2----|--3--3--3--3----|--5--5--5s-10---|


----------------|----------------|----------------|----------------|
----------------|----------------|----------------|----------------|
----------------|----------------|----------------|----------------|
--4--4--4--4----|--5--5--5--5----|--7--7--7--7----|--4--4--4--4----|
--4--4--4--4----|--5--5--5--5----|--7--7--7--7----|--4--4--4--4----|
--2--2--2--2----|--3--3--3--3----|--5--5--5--5----|--2--2--2--2----|


----------------|----------------|----------------|----------------|
----------------|----------------|----------------|----------------|
----------------|----------------|----------------|----------------|
--5--5--5--5----|--7--7--7--12---|--4--4--4--4----|--5--5--5--5----|
--5--5--5--5----|--7--7--7--12---|--4--4--4--4----|--5--5--5--5----|
--3--3--3--3----|--5--5--5s-10---|--2--2--2--2----|--3--3--3--3----|


----------------|--2-----2-----2-----2h-3h----2-----2-------|
----------------|--3-----3-----3-----3--------------3-------|
----------------|--2-----2-----2-----2--------------2-------|
--7--7--7--12---|--0M----0M----0M----0M-------------0M------|
--7--7--7--12---|-------------------------------------------|
--5--5--5s-10---|-------------------------------------------|


--2-----2-----2-----2--3h----2-----2-------|
--3-----3-----3-----3--------------3-------|
--2-----2-----2-----2--------------2-------|
--0M----0M----0M----0M-------------0M------|
-------------------------------------------|
-------------------------------------------|


--2-----2-----2-----2h-3h----2-----2-------|
--3-----3-----3-----3--------------3-------|
--2-----2-----2-----2--------------2-------|
--0M----0M----0M----0M-------------0M------|
-------------------------------------------|
-------------------------------------------|


--2-----2-----2-----2--3h----2-----2-------|--2----||
--3-----3-----3-----3--------------3-------|--3----||
--2-----2-----2-----2--------------2-------|--2----||
--0M----0M----0M----0M-------------0M------|--0----||
-------------------------------------------|-------||
-------------------------------------------|-------||

comments
We did not receive enough feedback on this tab! Please rate:
print report bad tab
1 2 3 4 5
I want to post or [tab]
guest
You may want to rate the tab now too:
select rating
Please do not post tabs as comments. Select "correction" instead!