Oops, an error
Loading. Please wait.

And Then It Passes Tab

450 views 1 this week
1 commentread comment
1 2 3 4 5
please rate
Autoscroll
+/-
esc
set tempo
stop
Contributor
Difficulty
advanced
WARNING: You are trying to view
                                    content from Ultimate-Guitar.com
                                    in an unauthorized application,
                                    which is prohibited.

                                    Please use an official Ultimate
                                    Guitar Tabs application for iPhone,
                                    iPad or Android to access legitimate
                                    chords, guitar, bass, and drum tabs
                                    from Ultimate-Guitar.com database.

                                    Type "ultimate guitar tabs" in Apple
                                    App Store's or Android Market's
                                    search to find the application.
CRYPTOPSY – … AND THEN IT PASSES
From The 2000 Album ‘AND THEN YOU’LL BEG’

Tuning B E A D F# B
. - palm mute / - slide up to
\ - slide down to ~ - vibrato
h - hammer on b - Bend
p - pull off Suffixes for bend
t - tap f - full bend h - half bend
ph - pinched harmonic q - quarter bend t - tap bend
* - see comment ^ - Hold bend r release bend
x - Stuccatto ~ - vibrato bend
, - slight palm mute () - ghost note, sustained note
" - tremolo note <> - Trill

Guitar one = Left channel
Guitar two = Right channel
Intro both guitars
          (0:13)             (0:18)
|--------|---------|--------|-------------|
|--------|---------|--------|-------------|
|--------|---------|--------|-------------|
|-voice--|-5---5---|-voice--|-------------|
|--------|-3-4-3-6-|--------|-6-6-6-5-3-3-|
|--------|---2---4-|--------|-4-4-4-4-4-4-|
           . . . .

both guitars
-RIFF-1---------------------------------------------------------|
----------------------------------------------------------------|
---------44----------44----------44----------44----------44-----|
-------33--3344----33--3344----33--3344----33--3344----33--3344-|
-----22----------22----------22----------22----------22---------|
-3333----------33----------33----------33----------33-----------|

------------------------------------|
------------------------------------|
-------44----------44----------44---|
-----33--3344----33--3344----33--33-|
---22----------22----------22-------|
-33----------33----------33---------|

guitar one 4 times (0:27)
|-RIFF-2--------------|
|---------------------|
|---------------------|
|---------3-----3-----|
|-6\3---2---6\3---2---|
|-4\1-1-----4\1-----4-|

guitar two 4 times (0:27)
|-RIFF-2--------------|
|---------------------|
|---------------------|
|-----3-------------3-|
|-6\3---2---6\3---2---|
|-4\1-----1-4\1-1-----|

both guitars (0:34)
|-RIFF-1-------------------------------|
|--------------------------------------|
|---------44----------44----------44---|
|-------33--3344----33--3344----33--33-|
|-----22----------22----------22-------|
|-3333----------33----------33---------|

only guitar one /both gtr.
|-BREAK(0:37)---|-----|
|---------------|-444-|
|---------------|-666-|
|---------5-4---|-----|
|-5-6-5-6-3-2-6-|-----|
|-3-4-3-4-----4-|-----|

both guitars (0:39)
|RIFF-3--------------------------------------------------------------------|
|------------444--------------444--------------444--------------------444--|
|------------666--------------666--------------666--------------------666--|
|------5-4--------------5-4--------------5-4-------------------------------|
|2-5-6-3-2-2------2-5-6-3-2-2------2-5-6-3-2-2------2-5-6-3/4-2/3-1/2------|
|0-3-4-----0------0-3-4-----0------0-3-4-----0------0-3-4------------------|

|---------------------------------------------------------------|
|------------444--------------444--------------444--------------|
|------------666--------------666--------------666--------------|
|------5-4--------------5-4--------------5-4--------------5-4---|
|2-5-6-3-2-2------2-5-6-3-2-2------2-5-6-3-2-2------2-5-6-3-2-5-|
|0-3-4-----0------0-3-4-----0------0-3-4-----0------0-3-4-----3-|

both guitars (0:50)
|-RIFF-4---------------------------------------------------------------|
|-----------------------------------------------------------------444--|
|-----------------------------------------------------------------666--|
|-----8-7-----6-5-----8-7-----6-5-----8-7-----6-5-----8-7-----6-5------|
|-3-4-6-5-6-7-4-3-3-4-6-5-6-7-4-3-3-4-6-5-6-7-4-3-3-4-6-5-6-7-4-3------|
|-1-2-----4-5-----1-2-----4-5-----1-2-----4-5-----1-2-----4-5----------|

both guitars (0:57)
|RIFF-3--------------------------------------------------------------------|
|------------444--------------444--------------444--------------------444--|
|------------666--------------666--------------666--------------------666--|
|------5-4--------------5-4--------------5-4-------------------------------|
|2-5-6-3-2-2------2-5-6-3-2-2------2-5-6-3-2-2------2-5-6-3/4-2/3-1/2------|
|0-3-4-----0------0-3-4-----0------0-3-4-----0------0-3-4------------------|

|-------------------------------------------------------------------|
|------------444--------------444--------------444------------------|
|------------666--------------666--------------666------------------|
|------5-4--------------5-4--------------5-4--------------5-4-------|
|2-5-6-3-2-2------2-5-6-3-2-2------2-5-6-3-2-2------2-5-6-3-2-5-3-5-|
|0-3-4-----0------0-3-4-----0------0-3-4-----0------0-3-4-----3-1-3-|

only guitar one (1:09)
|---BREAK---|
|-----------|
|-----4-----|
|---3---3-4-|
|-2---------|
|-----------|
  . . . . .

guitar one (1:10)                           (1:14)
|-RIFF-2-----------------------------------|-------6-times-------|
|------------------------------------------|---------------------|
|------------------------------------------|---------------------|
|---------3----------3-----3---------3---3-|-----3-------------3-|
|-6\3---2---6\-3---2---6\3---2---6\3---2---|-6\3---2---6\3---2---|
|-4\1-1-----4\-1-1-----4\1-----1-4\1-------|-4\1-----1-4\1-1-----|

           (1:26/double bass)
|-----------|--5-times--|------------------------|
|-----------|-----------|------------------------|
|-----------|-----------|---------44-------------|
|-----3-----|---------3-|-------33--33-----3---3-|
|-6\3---2---|-6\3---2---|-----22-------6\3---2---|
|-4\1-----1-|-4\1-1-----|-3333---------4\1-------|

guitar two (1:10)
|-RIFF-2-----------------------------------------------------------------|
|------------------------------------------------------------------------|
|------------------------------------------------------------------------|
|---------3------3-------------3-----3-------------3-----3---------3---3-|
|-6\3---2---6\-3---2---6\3---2---6\3---2---6\3---2---6\3---2---6\3---2---|
|-4\1-1-----4\-1-----1-4\1-1-----4\1-----1-4\1-1-----4\1-----1-4\1-------|
(1:17)             (1:26/double bass)
-------5-times-------|--5-times--|------------------------|
---------------------|-----------|------------------------|
---------------------|-----------|---------44-------------|
-----3-------------3-|---------3-|-------33--33---------3-|
-6\3---2---6\3---2---|-6\3---2---|-----22-------6\3---2---|
-4\1-----1-4\1-1-----|-4\1-1-----|-3333---------4\1-1-----|

both guitars (1:32)
|------BREAK--------|
|-------------------|
|-------5-----------|
|---4---3-4---------|
|-5-2-6---2-3-4-----|
|-3---4-----1-2-----|
  .   .     .

both guitars (1:34)
|-RIFF-4--------------------------------------------------|
|---------------------------------------------------------|
|---------------------------------------------------------|
|---6-5-----8-7-----6-5-----8-7-----6-5-----8-7-----6-5---|
|-7-4-3-3-4-6-5-6-7-4-3-3-4-6-5-6-7-4-3-3-4-6-5-6-7-4-3-3-|
|-5-----1-2-----4-5-----1-2-----4-5-----1-2-----4-5-----1-|

both guitars(1:39)/BREAK
|------------------|
|---------99-------|
|-------77--77-----|
|---0055------55---|
|---------------66-|
|-33---------------|
  ................

both guitars 4 times (1:41)
|-RIFF-5----------|
|-----------------|
|-----------------|
|---7-----6---7---|
|-5-5-7-8-4-6-5-8-|
|-3---5-6---4---6-|

both guitars (1:47)
|-RIFF-6-(3-times)-|----fourth-time-----|
|---------99-------|---------99----1010-|
|-------77--77-----|-------77----88-----|
|-----55------55---|-----55----66-------|
|---66----------66-|---66---------------|
|-33---------------|-33-----------------|

both guitars (1:53)
|-RIFF-6-(3-times)-|----last-time-----|
|---------99-------|------------------|
|-------77--77-----|-------66---------|
|-----55------55---|-----55--55-------|
|---66----------66-|---66------66--55-|
|-33---------------|-33----------33---|

both guitars 4 times (1:59)
|-RIFF-5----------|
|-----------------|
|-----------------|
|---7-----6---7---|
|-5-5-7-8-4-6-5-8-|
|-3---5-6---4---6-|

guitar one (2:05)
|-RIFF-7----------------------------------------------|
|-----------------------------------------------------|
|-----------------------------------------------------|
|-----------------------------0-----------------------|
|-----------------------------0--3/4-4/5--5-4-5-3-4-4-|
|-3------------------------------3/4-4/5--3-2-3-1-2-2-|
                                          . . . . . .
guitar two (2:05)
|-RIFF-7----------------------------------------------|
|--------------98—--87--—8\---------------------------|
|----980--870----5----5-------------------------------|
|-----------------------------0-----------------------|
|-5---------------------------0--3/4-4/5--5-4-5-3-4-4-|
|-3------------------------------3/4-4/5--3-2-3-1-2-2-|
                                        . . . . . . .

guitar one (2:10)
|-RIFF-7----------------------------------------------|
|-----------------------------------------------------|
|-3---------------------------------------------------|
|-----------------------------0-----------------------|
|-----------------------------0--3/4-4/5--5-4-5-3-4-4-|
|-3------------------------------3/4-4/5--3-2-3-1-2-2-|
                                          . . . . . .

guitar two (2:10)
|-RIFF-7----------------------------------------------|
|-----------------------—87---------------------------|
|---------870--760--760----5\-------------------------|
|----870----------------------0-----------------------|
|-5---------------------------0--3/4-4/5--5-4-5-3-4-4-|
|-3------------------------------3/4-4/5--3-2-3-1-2-2-|
                                        . . . . . . .

guitar one (2:14)
|-RIFF-7----------------------------------------------|
|-----------------------------------------------------|
|-3---------------------------------------------------|
|-----------------------------0-----------------------|
|-----------------------------0--3/4-4/5--5-4-5-3-4-4-|
|-3------------------------------3/4-4/5--3-2-3-1-2-2-|
                                          . . . . . .

guitar two (2:14)
|-RIFF-7----------------------------------------------|
|--------------98—--87--—8\-----------------------87--|
|----980--870----5----5--------------870--760-760---5\|
|--------------------------------4/5------------------|
|-5---------------------------0--4/5------------------|
|-3---------------------------------------------------|
  .                           .

both gtr.(2:18)
(RIFF 8)
|---3-times---|-------------|
|-------------|---------0---|
|-------------|---------4---|
|-------------|-------------|
|-5-4-5-3-4-4-|-5-4-5-3-2---|
|-3-2-3-1-2-2-|-3-2-3-1-----|
  . . . . . .   . . . .

(2:22)
|---7-times---|-------------|
|-------------|---------0---|
|-------------|---------4---|
|-------------|-------------|
|-5-4-5-3-4-4-|-5-4-5-3-2---|
|-3-2-3-1-2-2-|-3-2-3-1-----|
  . . . . . .   . . . .

(2:32)
|---3-times---|-----(last)------|
|-------------|-----------------|
|-------------|-----------------|
|-------------|-----------------|
|-5-4-5-3-4-4-|-5-4-5-3-4-4-5---|
|-3-2-3-1-2-2-|-3-2-3-1-2-2-3---|
  . . . . . .   . . . . . . .

both guitars (2:37)
|-RIFF-9----------------------------------------------------|
|-----------------------------------------------------------|
|-980--870--------------------------870--760--760-----------|
|-----------65---54---54-------870-----------------54-------|
|-------------3----3----3--4-------------------------3--5---|
|--------------------------2----------------------------3---|
                           .                            .

-------------------------------------------------------|
-------------------------------------------------------|
-980--870----------------------------------------------|
-----------65---54---54--------------------------------|
-------------3----3----3--4---3/4-4/5--5-4-5-3-4-4-5---|
--------------------------2---3/4-4/5--3-2-3-1-2-2-3---|
                                     . . . . . . . .

|-----------------------------------------------------------|
|-----------------------------------------------------------|
|-980--870--------------------------870--760--760-----------|
|-----------65---54---54-------870-----------------54-------|
|-------------3----3----3--4-------------------------3--5---|
|--------------------------2----------------------------3---|
                           .                            .

---------------------------------------------------|
---------------------------------------------------|
-980--870--------------------------870-------------|
-----------65---54---54-------870------------------|
-------------3----3----3--4------------5-4-5-3-4-4-|
--------------------------2------------3-2-3-1-2-2-|
                          .            . . . . . .

only guitar one both guitars
(2:56) (2:59)
|-RIFF-8------|-BASS-|---7-times---|
|-------------|------|-------------|
|-------------|------|-------------|
|-------------|------|-------------|
|-5-4-5-3-4-4-|------|-5-4-5-3-4-4-|
|-3-2-3-1-2-2-|------|-3-2-3-1-2-2-|
  . . . . . .          . . . . . .

both guitars only guitar one (3:07)
|---------------|------BREAK------|
|---------------|-----------------|
|---------------|---6-10-9--------|
|---------------|-7-4--8-7-10-6---|
|-5-4-5-3-4-4-4-|-5---------8-4-5-|
|-3-2-3-1-2-2-2-|---------------3-|
  . . . . . .

both guitars (3:09)
|RIFF-10-(3-times)-|----fourth-time----|
|------------------|-------------------|
|-------3322----55-|-----6-10-9--------|
|-----44----33-----|---7-4--8-7-10-6---|
|---55--------44---|-4-5---------8-4-5-|
|-22---------------|-2---------------3-|

(3:15)
|RIFF-10-(3-times)-|----fourth-time----|
|------------------|-------------------|
|-------3322----55-|-----6-10-9--------|
|-----44----33-----|---7-4--8-7-10-6---|
|---55--------44---|-4-5---------8-4-5-|
|-22---------------|-2---------------3-|

both guitars (3:21)
|-RIFF-6-(3-times)-|----fourth-time-----|
|---------99-------|---------99----1010-|
|-------77--77-----|-------77----88-----|
|-----55------55---|-----55----66-------|
|---66----------66-|---66---------------|
|-33---------------|-33-----------------|

both guitars (3:28)
|-RIFF-6-(3-times)-|------2-times-------|---last----|(stop)
|---------99-------|---------99----1010-|---------9-|
|-------77--77-----|-------77----88-----|-------77--|
|-----55------55---|-----55----66-------|-----55----|
|---66----------66-|---66---------------|---66------|
|-33---------------|-33-----------------|-33--------|
                                          ........
guitar one (3:37) / RIFF 11
6 times last
|-1010--------99-|-1010--------9910-|(stop)
|-----99----88---|-----99----88-----|
|-------7766-----|-------7766-------|
|----------------|------------------|
|----------------|------------------|
|----------------|------------------|

guitar two (3:37) / RIFF 11
6 times last
|----------------|------------------|(stop)
|-1010--------99-|-1010--------9910-|
|-----88----77---|-----88----77-----|
|-------6655-----|-------6655-------|
|----------------|------------------|
|----------------|------------------|

both guitars (3:46)
RIFF 12
|---------6-times---------|
|-------------------------|
|-------------------------|
|---------6-6-7-7---------|
|-----5-5---------6-6-----|
|-3-3-----------------4-4-|
  . . . . . . . . . . . .

SOLO I
Rhythm under solo I/4 times (3:54)
|-RIFF-5----------|
|-----------------|
|-----------------|
|---7-----6---7---|
|-5-5-7-8-4-6-5-8-|
|-3---5-6---4---6-|

SOLO I (3:53) /(3:54)
|--------------|-----------------------------1515161615-------19h\-6~-|
|--------------|-------------15151613--131516----------17-------------|
|--------------|---------1212--------14-------------------16h---------|
|---~-~-~-~----|-----1212---------------------------------------------|
|-/1717171716\-|-1010-------------------------------------------------|
|--------------|------------------------------------------------------|

                                           (sweep)
-18h20p18-17------18h21p18-16h17p16-16ph--------17-------------7ph---|
-------------19bf-----------------------------19-------------------6-|
-----------------------------------------17-19--------0—7ph-3-(4)----|
---------------------------------------------------17----------------|
---------------------------------------------------------------------|
---------------------------------------------------------------------|

SOLO both guitars (4:00) / without rhythm guitar

guitar one
-5ph-0-----------19bf---191919/.....(walk above the fretboard)-|
---------------------------------------------------------------|
-------9ph-----------------------------------------------------|
-----------5ph-------------------------------------------------|
---------------------------------------------------------------|
---------------------------------------------------------------|
     .

guitar two
-----------------16pf---161616/.....(walk above the fretboard)-|
-5ph-0---------------------------------------------------------|
---------------------------------------------------------------|
-------9ph-----------------------------------------------------|
-----------5ph-------------------------------------------------|
---------------------------------------------------------------|
     .

(use your whammy bar during this whole figure)
guitar one (4:03)
-11h13p11h13p11-12h14p12h14p12-13h15p13h15p13-14h16p14h16p14-|
-------------------------------------------------------------|
-------------------------------------------------------------|
-------------------------------------------------------------|
-------------------------------------------------------------|
-------------------------------------------------------------|

-15h17p15h17p15-16h18p16h19-22fb---|
-----------------------------------|
-----------------------------------|
-----------------------------------|
-----------------------------------|
-----------------------------------|

guitar two (4:03)
-8h10p8h10p8-9h11p9h11p9-10h12p10h12p10-11h13p11h13p11-|
-------------------------------------------------------|
-------------------------------------------------------|
-------------------------------------------------------|
-------------------------------------------------------|
-------------------------------------------------------|

-12h14p12h14p12-13h15p13h16-19fb---|
-----------------------------------|
-----------------------------------|
-----------------------------------|
-----------------------------------|
-----------------------------------|

Rhythm under solo II (4:07)
|-RIFF-5—(1-time)-|-----2-times-----|-------last--------|
|-----------------|-----------------|---------------444-|
|-----------------|-----------------|---------------666-|
|---7-----6---7---|---7-----6---7---|---7-----6---7-----|
|-5-5-7-8-4-6-5-8-|-5-5-7-8-4-6-5-8-|-5-5-7-8-4-6-5-----|
|-3---5-6---4---6-|-3---5-6---4---6-|-3---5-6---4-------|
                    . . . . . . . .   . . . . . . .

SOLO II
(use your whammy bar during this whole part)
|------------------22\------------------------|
|-20bf--------19\-----------------------------|
|--------19\------------2h3p2h3p2h3p2h3p2h3bh-|
|---------------------------------------------|
|---------------------------------------------|
|---------------------------------------------|

walk along the fretboard by
playing only pinch harmonics tremolo violence
-phphphphphphphphphphphphph—13ph-/-19-/-\-/-\-/-\-----|
-+-+-+-+-+-+-+-+-+-+-+-+-+----------------------------|
------------------------------------------------------|
------------------------------------------------------|
------------------------------------------------------|
------------------------------------------------------|

both guitars (4:13)
|RIFF-3---------------------------------------------------------|
|------------444--------------444--------------444--------------|
|------------666--------------666--------------666--------------|
|------5-4--------------5-4--------------5-4--------------5-4---|
|2-5-6-3-2-2------2-5-6-3-2-2------2-5-6-3-2-2------2-5-6-3-2-2-|
|0-3-4-----0------0-3-4-----0------0-3-4-----0------0-3-4-----0-|

both guitars (4:19)
|-RIFF-4------------------------------------------|
|-------------------------------------------------|
|-------------------------------------------------|
|-----8-7-----6-5-----8-7-----6-5-----8-7-----6-5-|
|-3-4-6-5-6-7-4-3-3-4-6-5-6-7-4-3-3-4-6-5-6-7-4-3-|
|-1-2-----4-5-----1-2-----4-5-----1-2-----4-5-----|

both guitars (4:23) / time change (blast)
|-RIFF-4----------------------------------------------------------|
|-----------------------------------------------------------------|
|-----------------------------------------------------------------|
|-----8-7-----6-5-----8-7-----6-5-----8-7-----6-5-----8-7-----6-5-|
|-3-4-6-5-6-7-4-3-3-4-6-5-6-7-4-3-3-4-6-5-6-7-4-3-3-4-6-5-6-7-4-3-|
|-1-2-----4-5-----1-2-----4-5-----1-2-----4-5-----1-2-----4-5-----|

both guitars (4:29)
|-RIFF-13---------------------------------------------------|
|-----------------------9----------------------------9------|
|-----------------------7----------------------------7------|
|-----------------------------------------------------------|
|-----5-4--------7--6------6-5-----5-4--------7--6------6-5-|
|-1/4-----6-2/6----------------1/4-----6-2/6----------------|

-----------------------------------|-BASS-|
-----------------------9-----------|------|
-----------------------7------8-8--|------|
------------------------------6-6--|------|
-----5-4--------7--6------6p5-6-6--|------|
-1/4-----6-2/6---------------------|------|

both guitars (4:37)
|-RIFF-1-------------------------------------------|
|--------------------------------------------------|
|---------44----------44----------44----------44---|
|-------33--3344----33--3344----33--3344----33--33-|
|-----22----------22----------22----------22-------|
|-3333----------33----------33----------33---------|

both guitars (4:41)
|-RIFF-14-----------------------------------|
|-------------------------------------------|
|-------------------------------------------|
|-44--------3344--------3344--------3344----|
|---33----22----33----22----33----22----33--|
|-----1100--------1100--------1100--------1-|

guitar one (4:44)
|-RIFF-2--------------------------------------------|
|---------------------------------------------------|
|---------------------------------------------------|
|---------3-----3-------------3-----3-------------3-|
|-6\3---2---6\3---2---6\3---2---6\3---2---6\3---2---|
|-4\1-1-----4\1-----4-4\1-1-----4\1-----4-4\1-1-----|

|-----------------------------------------------|
|-----------------------------------------------|
|---------44---------------------44-------------|
|-------33--33---------3-------33--33---------3-|
|-----22-------6\3---2-------22-------6\3---2---|
|-3333---------4\1-1-----3333---------4\1-1-----|

guitar two (4:44)
|-RIFF-2--------------------------------------------|
|---------------------------------------------------|
|---------------------------------------------------|
|-----3-------------3-----3-------------3---------3-|
|-6\3---2---6\3---2---6\3---2---6\3---2---6\3---2---|
|-4\1-----4-4\1-1-----4\1-----1-4\1-1-----4\1-1-----|

|-----------------------------------------------|
|-----------------------------------------------|
|---------44---------------------44-------------|
|-------33--33---------3-------33--33---------3-|
|-----22-------6\3---2-------22-------6\3---2---|
|-3333---------4\1-1-----3333---------4\1-1-----|

both guitars (4:52)
RIFF 15
|---6-times---|
|-------------|
|-------------|
|-------3-----|
|---2-----2---|
|-3---3-----1-|

both guitars (4:58) / ending
|------------------------------------------------|
|------------------------------------------------|
|---------44----------44-------------------------|
|-------33--3344----33--33-------4------4--------|
|-----22----------22-------6\5-4-2-4-3--2--3--4--|
|-3333----------33---------4\3-2---2-1-----1--2--|

------------------------||
------------------------||
---------44-------------||
-------33--3344----33-4-||
-----22----------22---2-||
-3333----------33-------||
End.
comments
We did not receive enough feedback on this tab! Please rate:
print report bad tab
1 2 3 4 5
1 comment total.
0 reply
=MetaL=FanatiC= wrote on October 17 2008, 11:38 pm

Awesome tab, doubt ill ever be able to play it all though >_<

I want to post or [tab]
guest
You may want to rate the tab now too:
select rating
Please do not post tabs as comments. Select "correction" instead!