Oops, an error
Loading. Please wait.

Angelskingarden Tab

100 views 1 this week
no commentswrite comment
1 2 3 4 5
excellent!
x 1
Autoscroll
+/-
esc
set tempo
stop
Contributor
Hey! There's an official Ultimate Guitar app which is ideal
for learning songs when you're away from computer. Get the app
WARNING: You are trying to view
                                    content from Ultimate-Guitar.com
                                    in an unauthorized application,
                                    which is prohibited.

                                    Please use an official Ultimate
                                    Guitar Tabs application for iPhone,
                                    iPad or Android to access legitimate
                                    chords, guitar, bass, and drum tabs
                                    from Ultimate-Guitar.com database.

                                    Type "ultimate guitar tabs" in Apple
                                    App Store's or Android Market's
                                    search to find the application.
Tuning B E A D F# B


Gtr.1 = right channel
Gtr.2 = left channel
Gtr.3 = lead guitar



(0:00) Synth Intro


(0:46) RIFF 1 / gtr. 1
|---------------------------------------------||
|---------------------------------------------||
|---------------------------------------------||
|---5-3-2-------5-3-2-------5-3-2-------5-3-2-||
|-2-5-3-2-----2-5-3-2-----2-5-3-2-----2-5-3-2-||
|-2-------5-2-2-------5-2-2-------5-2-2-------||
  .     . . . .     . . .       . . .

(0:46) RIFF 1 / gtr. 2
|---------------------------------------------||
|---------------------------------------------||
|---------------------------------------------||
|---5-3-2-6p4---5-3-2-6p4---5-3-2-6p4---5-3-2-||
|-2-5-3-2-6p4-2-5-3-2-6p4-2-5-3-2-6p4-2-5-3-2-||
|-2-----------2-----------2-----------2-------||
  .           .           .           .



(0:49) RIFF 2 / both gtr.
|---4-1-----------4-1-----------4-1-----------4-1------|
|---4-1-4p2-1-----4-1-4p2-1-----4-1-4p2-1-----4-1------|
|-------4p2-1-4-1-----4p2-1-4-1-----4p2-1-4-1----------|
|-0-----------4-1-----------4-1-----------4-1----------|
|-0-----------------------------------------------4444-|
|------------------------------------------------------|
  .

 -7-4-----------7-4-----------7-4-----------7-4-|
 -7-4-7p5-4-----7-4-7p5-4-----7-4-7p5-4-----7-4-|
 -----7p5-4-7-4-----7p5-4-7-4-----7p5-4-7-4-----|
 -----------7-4-----------7-4-----------7-4-----|
 -----------------------------------------------|
 -----------------------------------------------|

 ---4-1-----------4-1-----------4-1-----------4-1------|
 ---4-1-4p2-1-----4-1-4p2-1-----4-1-4p2-1-----4-1------|
 -------4p2-1-4-1-----4p2-1-4-1-----4p2-1-4-1----------|
 -0-----------4-1-----------4-1-----------4-1----------|
 -0-----------------------------------------------4444-|
 ------------------------------------------------------|
  .
 -7-4-----------7-4-----------7-4-----------7-4-|
 -7-4-7p5-4-----7-4-7p5-4-----7-4-7p5-4-----7-4-|
 -----7p5-4-7-4-----7p5-4-7-4-----7p5-4-7-4-----|
 -----------7-4-----------7-4-----------7-4-----|
 -----------------------------------------------|
 -----------------------------------------------|

 ---4-1-----------4-1-----------4-1-----------4-1------|
 ---4-1-4p2-1-----4-1-4p2-1-----4-1-4p2-1-----4-1------|
 -------4p2-1-4-1-----4p2-1-4-1-----4p2-1-4-1----------|
 -0-----------4-1-----------4-1-----------4-1----------|
 -0-----------------------------------------------4444-|
 ------------------------------------------------------|
  .

 -7-4-----------7-4-----------7-4-----------7-4-------------------||
 -7-4-7p5-4-----7-4-7p5-4-----7-4-7p5-4-----7-4-------------------||
 -----7p5-4-7-4-----7p5-4-7-4-----7p5-4-7-4-----------------------||
 -----------7-4-----------7-4-----------7-4-----6\4-6-4-6-7-6-4/6-||
 -----------------------------------------------4\2-4-2-4-5-4-2/4-||
 -----------------------------------------------------------------||



(1:09) RIFF 3 / gtr. 1
|----------------------------------|
|----------------------------------|
|----------------------------------|
|----------------------------------|
|---------------220022002233220000-|
|----------------------------------|

(1:09) RIFF 3 / gtr. 2
|----------------------------------|
|----------------------------------|
|----------------------------------|
|-4-7-4-6-7-6----------------------|
|-2-5-2-4-5-4-0-220022002233220000-|
|----------------------------------|

 continue RIFF 3 / gtr. 1
 ----------------------------------|
 ----------------------------------|
 ----------------------------------|
 -4-7-4-6-7-6----------------------|
 -2-5-2-4-5-4-0-220022002233220000-|
 ----------------------------------|

 continue RIFF 3 / gtr. 2
 ----------------------------------|
 ----------------------------------|
 ----------------------------------|
 -4-7-4-6-7-6----------------------|
 -2-5-2-4-5-4-0-220022002233220000-|
 ----------------------------------|

 continue RIFF 3 / gtr. 1
 ----------------------------------|
 ----------------------------------|
 ----------------------------------|
 -447744667766---------------------|
 -------------66664444446677776677-|
 ----------------------------------|

 continue RIFF 3 / gtr. 2
 ----------------------------------|
 ----------------------------------|
 ----------------------------------|
 -4-7-4-6-7-6----------------------|
 -2-5-2-4-5-4-0-220022002233220000-|
 ----------------------------------|
 continue RIFF 3 / gtr. 1
 ----------------------------------|
 ----------------------------------|
 ----------------------------------|
 -44774466776622442244224455442222-
 ----------------------------------|
 ----------------------------------|

 continue RIFF 3 / gtr. 2
 ----------------------------------|
 ----------------------------------|
 ----------------------------------|
 -4-7-4-6-7-6----------------------|
 -2-5-2-4-5-4-0-220022002233220000-|
 ----------------------------------|

 ending RIFF 3 / gtr. 1
 ----------------------------------||
 ----------------------------------||
 ----------------------------------||
 -4-7-4-6-7-6----------------------||
 -2-5-2-4-5-4-0-220022002233220000-||
 ----------------------------------||

 ending RIFF 3 / gtr. 2
 ----------------------------------||
 ----------------------------------||
 ----------------------------------||
 -4-7-4-6-7-6----------------------||
 -2-5-2-4-5-4-0-220022002233220000-||
 ----------------------------------||

(1:20) RIFF 3b / both gtr. = 4 times
|----------------------------------||
|----------------------------------||
|----------------------------------||
|-4-7-4-6-7-6----------------------||
|-2-5-2-4-5-4-0-220022002233220000-||
|----------------------------------||
  . . . . . . .

(1:20) RIFF 3b /
both gtr. last time
|---------------||
|---------------||
|---------------||
|-4-7-4-6-7-6-4-||
|-2-5-2-4-5-4-2-||
|---------------||
  . . . . . .


(1:31) RIFF 2 / both gtr.
|---4-1-----------4-1-----------4-1-----------4-1------|
|---4-1-4p2-1-----4-1-4p2-1-----4-1-4p2-1-----4-1------|
|-------4p2-1-4-1-----4p2-1-4-1-----4p2-1-4-1----------|
|-------------4-1-----------4-1-----------4-1----------|
|-------------------------------------------------4444-|
|-0----------------------------------------------------|
  .

 -7-4-----------7-4-----------7-4-----------7-4-||
 -7-4-7p5-4-----7-4-7p5-4-----7-4-7p5-4-----7-4-||
 -----7p5-4-7-4-----7p5-4-7-4-----7p5-4-7-4-----||
 -----------7-4-----------7-4-----------7-4-----||
 -----------------------------------------------||
 -----------------------------------------------||
ending of RIFF 2 / gtr. 1
|---4-1-----------4-1-----------4-1----------------------------------||
|---4-1-4p2-1-----4-1-4p2-1-----4-1-4p2-1----------------------------||
|-------4p2-1-4-1-----4p2-1-4-1-----4p2-1----------------------------||
|-0-----------4-1-----------4-1-----------4--------------------------||
|-0---------------------------------------4--2-------4-------4-------||
|--------------------------------------------0-------2-------2-------||
  .                                          .       .       .

ending of RIFF 2 / gtr. 2
|---4-1-----------4-1-----------4-1----------------------------------||
|---4-1-4p2-1-----4-1-4p2-1-----4-1-4p2-1----------------------------||
|-------4p2-1-4-1-----4p2-1-4-1-----4p2-1----------------------------||
|-0-----------4-1-----------4-1-----------4--2-3-4-1-3-0-1-2-4-1-2-3-||
|-0---------------------------------------4--2-3-4-1-3-0-1-2-4-1-2-3-||
|--------------------------------------------------------------------||
  .                                          . . . . . . . . . . . .



(1:42) RIFF 4 / both gtr. = 4 times
|---------------0--------------------------------------------||
|---------------0--------------------------------------------||
|--------------------------------------------0h3-------------||
|-------6-------------6-6-4-7--------6---------------6-6-4-5-||
|-4-----4-4---4---4---4-4-2-5--4-----4-4---------4---4-4-2-3-||
|-2---0---2---2---2------------2---0---2---0-----2-----------||
      .       .       . . . .      .       .         . . . .

(2:01) RIFF 4b / both gtr. = 2 times
|---------------0----------------------------0-------------||
|---------------0----------------------------0-------------||
|----------------------------------------------------------||
|-------6-------------5-6---5--------6-------------5-6---7-||
|-4-----4-4---4---4---3-4-4-3--4-----4-4---4---4---3-4-5-5-||
|-2---0---2---2---2-------2----2---0---2---2---2-------3---||
      .       .                    .       .

(2:10) RIFF 4c / both gtr. (last time)
|---------------0--------------------------------------------||
|---------------0--------------------------------------------||
|--------------------------------------------0h3-------------||
|-------6-------------5-6---5--------6---------------6-7-5-5-||
|-4-----4-4---4---4---3-4-4-3--4-----4-4---------4---4-5-3-3-||
|-2---0---2---2---2-------2----2---0---2---0-----2-----------||
      .       .                    .       .         . . .



(2:19) RIFF 5 / gtr. 1 = 4 times
|------------------------------------------||
|-----------------333338881111111111111111-||
|-----------------444449991212121212121212-||
|------------------------------------------||
|-4444224444224444-------------------------||
|-0000000000000000-------------------------||

(2:19) RIFF 5 / gtr. 2 = 4 times
|------------------------------------------||
|-----------------333338881111111111111111-||
|-----------------444449991212121212121212-||
|------------------------------------------||
|-4444224444224444-------------------------||
|-0000000000000000-------------------------||

(2:29) RIFF 5 / gtr. 1 = 2 times
|------------------------------------------||
|-----------------333338881111111111111111-||
|-----------------444449991212121212121212-||
|------------------------------------------||
|-4444224444224444-------------------------||
|-0000000000000000-------------------------||
(2:29) RIFF 6 / gtr. 2 = 2 times
|----------------------------------||
|----------------------------------||
|----------------------------------||
|----------------------------------||
|-------------------44444444444444-||
|-00333300336633006666666666666666-||


(2:33) RIFF 6 / gtr. 1
|------------------------------------------------------------------||
|------------------------------------------------------------------||
|------------------------------------------------------------------||
|------------------------------------------------------------------||
|-------------------44444444444444------------------44444444444444-||
|-0033330033663300666666666666666600333300336633006666666666666666-||

(2:33) RIFF 7 / gtr. 2
|----------------------------------------------------------------------||
|----------------------------------------------------------------------||
|-------------------------------------------------9999-----------------||
|---------------------------------------------9999---------------------||
|---------------------------------777710101010-------------------------||
|-00003333666633006666666666666666--------------------5555555555555555-||

(2:38) RIFF 6 / gtr. 1
|------------------------------------------------------------------||
|------------------------------------------------------------------||
|------------------------------------------------------------------||
|------------------------------------------------------------------||
|-------------------44444444444444------------------44444444444444-||
|-0033330033663300666666666666666600333300336633006666666666666666-||

(2:38) RIFF 8 / gtr. 2
|-----------------------------------------------------------------||
|-----------------------------------------------------------------||
|-----------------------------------------------------------------||
|-885555885555885588885555------------------------------------0-0-||
|-----------------------------------------4444----5555444433332-2-||
|-------------------------999966663333666666662255----------------||



(2:43) RIFF 5 / gtr. 1 = 2 times
|------------------------------------------||
|-----------------333338881111111111111111-||
|-----------------444449991212121212121212-||
|------------------------------------------||
|-4444224444224444-------------------------||
|-0000000000000000-------------------------||

(2:43) RIFF 5 / gtr. 2 = 2 times
|------------------------------------------||
|-----------------333338881111111111111111-||
|-----------------444449991212121212121212-||
|------------------------------------------||
|-4444224444224444-------------------------||
|-0000000000000000-------------------------||

(2:47) RIFF 5b / gtr. 1
|------------------------------------------------------------------------------||
|-----------------333338881111111111111111-------------------------------------||
|-----------------444449991212121212121212-------------------------------------||
|------------------------------------------------------------------------------||
|-4444224444224444-----------------------------------------------4-4-4-4-4-4-4-||
|-0000000000000000-------------------------003333003333-0h3-/-6--6-6-6-6-6-6-6-||
                                                                 . . . . . . .
(2:47) RIFF 6b / gtr. 2
|----------------------------------------------------------------------||
|----------------------------------------------------------------------||
|----------------------------------------------------------------------||
|----------------------------------------------------------------------||
|-------------------44444444444444-----------------------4-4-4-4-4-4-4-||
|-00333300336633006666666666666666-003333003333-0h3-/-6--6-6-6-6-6-6-6-||

                                                        . . . . . . .

(2:52) RIFF 9 / both gtr.
|--------------------------------------------------|
|--------------------------------------------------|
|--------------------------------------------------|
|--------------------------------------------------|
|-4-----4-----4-----4-----4-----4-----4------------|
|-0-0-0-0-0-0-0-0-0-0-0-0-0-0-0-0-0-0-0-0-5-/-17-\-|
    . .   . .   . .   . .   . .   . .   .

--------------------------------------------------|
--------------------------------------------------|
--------------------------------------------------|
--------------------------------------------------|
-4-----4-----4-----2-----4-----4-----4-----2------|
-0-0-0-0-0-0-0-0-0-0-0-0-0-0-0-0-0-0-0-0-0-0-0-0--|
   . .   . .   . .   . .   . .   . .   . .   . .

                                   whammy bar
--------------------------------nh-------------|
--------------------------------5--/--\-/-\-/--|
--------------------------------5--/--\-/-\-/--|
-----------------------------------------------|
-4-----4-----4-----2-----4---------------------|
-0-0-0-0-0-0-5-0-0-3-0-0-0-0-0-----------------|
   . .   . .   . .   . .   . .

--------------------------------------------------|
--------------------------------------------------|
--------------------------------------------------|
--------------------------------------------------|
-4-----4-----4-----2-----4-----4------------------|
-0-0-0-0-0-0-0-0-0-0-0-0-0-0-0-0-0-0-555566778899-|
   . .   . .   . .   . .   . .   . . ............

--------------------------------------------------||
--------------------------------------------------||
--------------------------------------------------||
--------------------------------------------------||
-4-----4-----4-----2-----4-----4-----4------------||
-0-0-0-0-0-0-0-0-0-0-0-0-0-0-0-0-0-0-0-0-0-778899-||
   . .   . .   . .   . .   . .   . .   . . ......



(3:10) RIFF 10 / gtr. 1
|--------------------------------------------------|
|-----------------------------------------------55-|
|-------------------------------------66----1122---|
|-----------22----------22----------22--5544-------|
|-44----------44----------44-----------------------|
|---33224455----33224455----33224455---------------|

 --------------------------------------------------||
 -----------------------------------55----------55-||
 -------------------------66----------66-----------||
 -----------22----------22--55446677----55446677---||
 -44----------44-----------------------------------||
 ---33224455----33224455---------------------------||
(3:10) RIFF 10 / gtr. 2
|--------------------------------------------------|
|--------------------------------------------------|
|--------------------------------------------------|
|-----------22----------22----------22----------22-|
|-44----------44----------44----------44-----------|
|---33224455----33224455----33224455----33224455---|

 --------------------------------------------------||
 --------------------------------------------------||
 --------------------------------------------------||
 -----------22----------22----------22----------22-||
 -44----------44----------44----------44-----------||
 ---33224455----33224455----33224455----33224455---||

(3:17) RIFF 9b / both gtr.
|-------------------------------------0-------0---|
|---------------------------------------4---4---4-|
|-----------------------------------------8-------|
|-------------------------------------------------|
|-4-----4-----4-----4-----4-----4-----------------|
|-0-0-0-0-0-0-0-0-0-0-0-0-0-0-0-0-0-0-------------|
    . .   . .   . .   . .   . .   . .

 -------------------------------------||
 -------------------------------------||
 -------------------------------------||
 -------------------------------------||
 -4-----4-----4-----4-----4-----4-----||
 -0-0-0-0-0-0-0-0-0-0-0-0-0-0-0-0-0-0-||
    . .   . .   . .   . .   . .   . .


(3:23) RIFF 11
(accoustic guitar with fingerpicking) / both gtr.
|-----11------------------------------------------||
|-9\8-8--8\(1)-1---/-(5)-5---/-(6)-6--------------||
|-9\8----8\(1)---1-/-(5)---5-/-(6)---6-\---3------||
|------------------------------------------2------||
|--------------3---/-(7)-7---/-(8)-8-------1------||
|-------------------------------------------------||


(3:26) RIFF 10b / gtr. 1
|--------------------------------------------------|
|--------------------------------------------------|
|--------------------------------------------------|
|-----------22----------22----------22----------22-|
|-44----------44----------44----------44-----------|
|---33224455----33224455----33224455----33224455---|

 --------------------------------------------------||
 -----------------------55----------55----------55-||
 -------------66----------66----------66-----------||
 -----------22--55446677----55446677----55446677---||
 -44-----------------------------------------------||
 ---33224455---------------------------------------||

(3:26) RIFF 10 / gtr. 2
|--------------------------------------------------|
|--------------------------------------------------|
|--------------------------------------------------|
|-----------22----------22----------22----------22-|
|-44----------44----------44----------44-----------|
|---33224455----33224455----33224455----33224455---|

 --------------------------------------------------||
 --------------------------------------------------||
 --------------------------------------------------||
 -----------22----------22----------22----------22-||
 -44----------44----------44----------44-----------||
 ---33224455----33224455----33224455----33224455---||
(3:34) RIFF 12 / both gtr.
|---------------------------------------------------||
|---------------------------------------------------||
|---------------------------------------------------||
|---------2222--------2222--------2222--------------||
|-44----------44----------44------------------------||
|---332255------332255------332255----0-0235-0-0235-||
  ..................................... .... . ....

(3:37) RIFF 13 / both gtr.
|--------------------------------------------------|
|--------------------------------------------------|
|--------------------------------------------------|
|-----------22----------22----------22----------22-|
|-44----------44----------44----------44-----------|
|---33224455----33224455----33224455----33224455---|

 -------------------------------------------||
 -------------------------------------------||
 -------------------4-----------------------||
 ---6-4-4-7-4-4-6-7-2-4-6-7-4-4-6-7-6-4-6-7-||
 -4-4-2-2-5-2-2-4-5---2-4-5-2-2-4-5-4-2-4-5-||
 -2-----------------------------------------||
  .     .     .   .   .     .         .

(3:44) RIFF 4 / both gtr. = 4 times
|---------------0--------------------------------------------||
|---------------0--------------------------------------------||
|--------------------------------------------0h3-------------||
|-------6-------------6-6-4-7--------6---------------6-6-4-5-||
|-4-----4-4---4---4---4-4-2-5--4-----4-4---------4---4-4-2-3-||
|-2---0---2---2---2------------2---0---2---0-----2-----------||
      .       .       . . . .      .       .         . . . .



(4:03) RIFF 14 / gtr. 1
|--------------------------------------------------------------|
|--------------------------------------------------------------|
|--------------------------------------------------------------|
|--------------------------------------------------------------|
|-----171717171717171717171717171717~~~~~~~~~~~~17~~~~~~~~~~~~-|
|-2-/-151515151515151515151515151515~~~~~~~~~~~~15-------------|

(4:03) RIFF 14 / gtr. 2
|--------------------------------------------------------------|
|--------------------------------------------------------------|
|-----------------------------------------------7~~~~bh~br~bh~-|
|-------------------------5-5-5-5-5-~~~~~~~~~~~~5~~~~~~---~~~~-|
|--------------------------------------------------------------|
|-2-/-151515151515151515\-3-3-3-3-3-~~~~~~~~~~~~---------------|
EXPLANATIONS:

        16h
2t / 14 14h = tap the first note with your right middle finger
            and slide up to the 14th fret.
            Then hammer on the chord with your left hand
            without picking.

\ \ \ 16h
\ \ \ 14h   = wipe over the strings near the pick-ups
            with your right hand / fingers
            (don't touch the strings with your left)
            over the e and a strings from the right to the left.
            (wipe with your bare fingers only).
            Then immediately play the chord by hammer on the
            the notes with your left hand.

(4:07) RIFF 15 / gtr. 1
|-----------------------------------------||
|-----------------------------------------||
|-----------------------------------------||
|-----------------------------------------||
|-16---------------\-\-\-16h----------17--||
|-14---------------\-\-\-14h----------15--||

(4:07) RIFF 15 / gtr. 2
|-----------------------------------------||
|-----------------------------------------||
|-----------------------------------------||
|-----------------------------------------||
|-16----------16h---------------------17h-||
|-14--2t-/-14-14h-------------2t-/-15-15h-||

(4:10) RIFF 16 / both gtr.
|-----------------------------------------------------|
|-----------------------------------------------------|
|-----------------------------------------------------|
|-----------------------------------------------------|
|-16h----------16h----------16h----------16h----------|
|-14h--2t-/-14-14h--2t-/-14-14h--2t-/-14-14h--2t-/-14-|

 -----------------------------------------------------|
 -----------------------------------------------------|
 -----------------------------------------------------|
 -----------------------------------------------------|
 -16h----------16h----------16h----------16h----------|
 -14h--2t-/-14-14h--2t-/-14-14h--2t-/-14-14h--2t-/-14-|

 -----------------------------------------------------|
 -----------------------------------------------------|
 -----------------------------------------------------|
 -19h----------19h----------19h----------19h----------|
 -16h----------16h----------16h----------16h----------|
 -14h--2t-/-14-14h--2t-/-14-14h--2t-/-14-14h--2t-/-14-|

 -----------------------------------------------------||
 -----------------------------------------------------||
 -----------------------------------------------------||
 -19h----------19h----------19h----------19h----------||
 -16h----------16h----------16h----------16h----------||
 -14h--2t-/-14-14h--2t-/-14-14h--2t-/-14-14h--2t-/-14-||

(4:20) RIFF 17 / both gtr.
|--------------------------------------------------------------------|
|--------------------------------------------------------------------|
|--------------------------------------------------------------------|
|--------------------------------------------------------------------|
|-16h--\-\-\-16h--\-\-\-16h--\-\-\-16h--\-\-\-16h--\-\-\-16h--\-\-\--|
|-14h--\-\-\-14h--\-\-\-14h--\-\-\-14h--\-\-\-14h--\-\-\-14h--\-\-\--|
 --------------------------------------------------------------------|
 --------------------------------------------------------------------|
 --------------------------------------------------------------------|
 --------------------------------------------------------------------|
 -16h--\-\-\-16h--\-\-\-16h--\-\-\-16h--\-\-\-16h--\-\-\-\-\-\-\-\---|
 -14h--\-\-\-14h--\-\-\-14h--\-\-\-14h--\-\-\-14h--\-\-\-\-\-\-\-\---|

 -------------------------------------||
 -------------------------------------||
 -------------------------------------||
 ----------------------------------5--||
 -16h--\-\-\-16h--\-\-\-16h--\--5--5--||
 -14h--\-\-\-14h--\-\-\-14h--\--3-----||
                                .

(4:34) SOLO - Alex Auburn
  Gtr.3
||---------------------------------------------------------------------------|
||-14bh(15)r14~~~~--14---10---10---14p10-14p10-------------------------------|
||----------------------------------------------11------11-----11-----11-----|
||------------------------------------------------------------------------10-|
||--------------------------------------------------12------9------12--------|
||---------------------------------------------------------------------------|

  Gtr. 3
 |------------------------------------------------------------14~~~---|
 |----------------------------------------------------10--14----------|
 |-13--10----------------------10~-14--13h14p13-11~~------------------|
 |---------11--------------11-----------------------------------------|
 |-------------11------11---------------------------------------------|
 |-----------------13-------------------------------------------------|

  Gtr. 3
 |-17~--16-17-14-16----14--------------------16~--14-16-13-14----12-----------------|
 |------------------17----15-17-14-15-------------------------15----14-15-14-12-----|
 |------------------------------------16~~~-------------------------------------14~~|
 |----------------------------------------------------------------------------------|
 |----------------------------------------------------------------------------------|
 |----------------------------------------------------------------------------------|

  Gtr. 3
 |-----------------------------------------------------------|
 |---------------14--14p12--------------15------14-----------|
 |-11~~--13--14------------14--13---14------13------11~~~~~~-|
 |-----------------------------------------------------------|
 |-----------------------------------------------------------|
 |-----------------------------------------------------------|

  Gtr. 3 (4:46)
 |-21p17------------------17h21p17--17-23p19--------------19h23--19h22p19--21-|
 |------19--------------19--------19--------21----------21-----21--------21---|
 |--------18----------18----------------------21------21----------------------|
 |----------19------19--------------------------23--23------------------------|
 |------------21--21------------------------------21--------------------------|
 |--------------21------------------------------------------------------------|


  Gtr. 3
 |-21p17------------------17h21p17----16p13------------------------13h16-16-161616~-|
 |------19--------------19--------19\------14--------------------14-----------------|
 |--------18----------18---------------------13----------------13-------------------|
 |----------19------19-------------------------15-----13-----15---------------------|
 |------------21--21-----------------------------16p13--16p13-----------------------|
 |--------------21------------------------------------------------------------------|

  Gtr. 3
 |------------------------------------------------12-------------------------|
 |----------12-12-15-14-14---------------12-14-15----15-14-12----------12-14-|
 |-11-13-14-----------------14~-11-13-14----------------------14-13-14-------|
 |---------------------------------------------------------------------------|
 |---------------------------------------------------------------------------|
 |---------------------------------------------------------------------------|
 Gtr. 3
|----12-14-12-------------------14-16-14----------------14-16-17-16-14----------|
|-15----------15-11-12-14h15-15----------17-15----14-15----------------17-15-14-|
|----------------------------------------------17-------------------------------|
|-------------------------------------------------------------------------------|
|-------------------------------------------------------------------------------|
|-------------------------------------------------------------------------------|

 Gtr. 3
|----------16-17-20p17-171717-22-22-24bf(26)~~~~--23bfh(26)~~~-|
|-15-17-19-----------------------------------------------------|
|--------------------------------------------------------------|
|--------------------------------------------------------------|
|--------------------------------------------------------------|
|--------------------------------------------------------------|

 Gtr. 3 (4:59)
|-----------9h13p9-------------14h17p14---------------17h21p17----------17--16----|
|---------11------11---------14--------14-----------19--------19----------------19|
|-------10----------10-----14------------14-------18------------18----------------|
|-----11--------------11/16----------------16---19----------------19--------------|
|---13---------------------------------------/21--------------------21~-----------|
|-13------------------------------------------------------------------------------|

 Gtr. 3
|----------------------------------------------14~~~\--|
|------------------------------------14~---------------|
|------------------11------14~-------------------------|
|--------11~-----------11--------11--------11----------|
|------------------------------------------------------|
|---/14--------14--------------------------------------|

 Gtr. 3
|-----------------------------------------------------------------------------------|
|----------10-12-14-12-10-----------------------------------------------------------|
|-10h12h14----------------14-11-14-12~12h14--\6--11h12------------------------------|
|--------------------------------------------------------12-11-9--------------------|
|------------------------------------------------------9---------12-11-9~9h12-11bhr-|
|-----------------------------------------------------------------------------------|

 Gtr. 3 (5:08)
|-------------------------------------------------------------------------|
|-------------------------------------------------14----15-14-17-15/19-17-|
|----------------------------------------14-17-16----16-------------------|
|----------------------14----16-14-18-16----------------------------------|
|-------------14----17----17----------------------------------------------|
|-16-14-17-16----17-------------------------------------------------------|

 Gtr. 3
|-16----17-16-19-17-16----17-16-------16------------------------------------|
|----19----------------19-------19-17----19-17-15-19-17-15------------------|
|----------------------------------------------------------18---------------|
|--------------------------------------------------------------16--18--19~~-|
|---------------------------------------------------------------------------|
|---------------------------------------------------------------------------|

 Gtr. 3
|---------------------16--17-------------------------||
|-----------------19---------------------------------||
|-16--18--19~~---------------------------------------||
|----------------------------------------------------||
|----------------------------------------------------||
|----------------------------------------------------||
(4:34) rhythm under solo RIFF 18 / both gtr.
|--------------------------------------------------|
|--------------------------------------------------|
|--------------------------------------------------|
|-------------222----------------------------------|
|----444---444---222555444---444---------222444555-|
|-222---555---------------222---555444333----------|
  ................................................

 ----------------------------------------------------|
 ----------------------------------------------------|
 ----------------222111----------------------------7-|
 -------------444------333444---333------------4-7-7-|
 ----444---444---------------555---444-2-4-7---2-5-5-|
 -222---555----------------------------3-5-5---------|
  .................................... . .     . .

 --------------------------------------------------|
 --------------------------------------------------|
 --------------------------------------------------|
 -------------222----------------------------------|
 ----444---444---222555444---444---444---444---444-|
 -222---555---------------222---222---000---111----|
  ................................................

 ----------------------------------------------|
 ----------------------------------------------|
 ----------------222111------------------------|
 -------------444------444333------------------|
 ----444---444---------------555444----7---6---|
 -222---555------------------------222-5---4---|
  ....................................

 ---------------------------------|
 ---------------------------------|
 ---------------------------------|
 ---------------------------------|
 -4-/-7-4---4/7-4---4/7-4---5/12--|
 -2-/-5-2---2/5-2---2/5-2---3/10--|

 --------------------------------------------------|
 --------------------------------------------------|
 --------------------------------------------------|
 -------------222----------------------------------|
 ----444---444---222555444---444---444------4--333-|
 -222---555---------------222---022---111223-22----|
  ................................................

|------------------------------------------------------------||
|------------------------------------------------------------||
|----------------222111--------------------------------------||
|-------------444------333444------333-2-4-6---4-6-7---4-6-7-||
|----444---444---------------555444----0-2-4---2-4-5---2-4-5-||
|-222---555--------------------------------------------------||
  .................................... . .     . .     . .
(5:16)
break / gtr. 1
|-------|
|-------|
|-----5-|
|-6-7---|
|-------|
|-------|
  . . .

(5:16)
break / gtr. 2
|-------|
|-------|
|-------|
|-3-4-5-|
|-------|
|-------|
  . . .


(5:17) RIFF 5 / both gtr. = 4 times
|------------------------------------------||
|-----------------333338881111111111111111-||
|-----------------444449991212121212121212-||
|------------------------------------------||
|-4444224444224444-------------------------||
|-0000000000000000-------------------------||

(5:26) RIFF 6 / both gtr. = 4 times
|----------------------------------||
|----------------------------------||
|----------------------------------||
|----------------------------------||
|-------------------44444444444444-||
|-00333300336633006666666666666666-||

(5:35) RIFF 19 / both gtr.
|-------------------------------------------------------||
|-------------------------------------------------------||
|-------------------------------------------------------||
|-------------------------------------------------------||
|-2h4----2h4----2h4----------2h4----4p2----2h4----------||
|-0--0-0-0--0-0-0--0-1-2-3-0-0--0-0-0--0-0-0--2-3-0-3-2-||
     . .    . .    . . . . .    . .    . .    . . . . .

(5:39) RIFF 20 / both gtr.
|-------------------------------------|
|-------------------------------------|
|-------------------------------------|
|-----------------------------------2-|
|-2h4----4p2----2h4----2h4--------2---|
|-0--0-0-0--0-0-0--0-0-0--0-1-3-4-----|
     . .    . .    . .     . . . . .

 -------------------------------------|
 -------------------------------------|
 -----------------------------------4-|
 -------------------------------2-4---|
 -2h4----4p2----2h4----2h4----4-------|
 -0--0-0-0--0-0-0--0-0-0--0-1---------|
     . .    . .    . .    . . . . .

 -------------------------------------|
 -------------------------------------|
 ---------------------------------4-5-|
 -----------------------------4-5-----|
 -2h4----4p2----2h4----2h4------------|
 -0--0-0-0--0-0-0--0-0-0--0-1---------|
     . .    . .    . .    . . . . .
 -------------------------------------|
 -------------------------------------|
 -----------------------------------4-|
 -------------------------------2-4---|
 -2h4----4p2----2h4----2h4----4-------|
 -0--0-0-0--0-0-0--0-0-0--0-1---------|
     . .    . .    . .    . . . . .

 -------------------------------------|
 -------------------------------------|
 -------------------------------------|
 -----------------------------------2-|
 -2h4----4p2----2h4----2h4--------2---|
 -0--0-0-0--0-0-0--0-0-0--0-1-3-4-----|
     . .    . .    . .    . . . . .

 -------------------------------------|
 -------------------------------------|
 -----------------------------------4-|
 -------------------------------2-4---|
 -2h4----4p2----2h4----2h4----4-------|
 -0--0-0-0--0-0-0--0-0-0--0-1---------|
     . .    . .    . .    . . . . .

 -------------------------------------|
 -----------------------------------5-|
 ---------------------------------4---|
 -----------------------------4-5-----|
 -2h4----4p2----2h4----2h4------------|
 -0--0-0-0--0-0-0--0-0-0--0-1---------|
     . .    . .    . .    . . . . .

 -------------------------------------|
 -------------------------------------|
 -----------------------------------4-|
 -------------------------------2-4---|
 -2h4----4p2----2h4----2h4----4-------|
 -0--0-0-0--0-0-0--0-0-0--0-1---------|
     . .    . .    . .    . . . . .

 -------------------------------------------------------------||
 -------------------------------------------------------------||
 -----------------------------------------4-5-----3-4-----3-4-||
 ---------------------2---------------4-5-----4-5-----4-5-----||
 -2h4----2h4--------2---2h4----4p2----------------------------||
 -0--0-0-0--0-1-3-4-----0--0-0-0--0-1-------------------------||
     . .    . . . . .      . .    . . . .     . .     . .

(6:00) RIFF 21 /
both gtr. = 8 times
|-------------||
|-------------||
|-------------||
|-6-7-6-----9-||
|-4-5-4-6-8-7-||
|-------4-6---||
  . . . . . .
(6:08) RIFF 21 / gtr. 1
|-------------------------------------------------||
|-------------------------------------------------||
|-------------------------------------------------||
|-----------9-----------9-----------9-----------9-||
|-------6-8-7-------6-8-7-------6-8-7-------6-8-7-||
|-------4-6---------4-6---------4-6---------4-6---||
        . . .       . . .       . . .       . . .

(6:08) RIFF 21 / gtr. 2
|-------------------------------------------------||
|-------------------------------------------------||
|-------------------------------------------------||
|-6-7-6-------6-7-6-------6-7-6-------6-7-6-------||
|-4-5-4-------4-5-4-------4-5-4-------4-5-4-------||
|-------------------------------------------------||
  . . .       . . .       . . .       . . .

(6:11) RIFF 21 / both gtr.
|-------------------------------------------------||
|-------------------------------------------------||
|-------------------------------------------------||
|-6-7-6-----9-6-7-6-----9-6-7-6-----9-6-7-6-------||
|-4-5-4-6-8-7-4-5-4-6-8-7-4-5-4-6-8-7-4-5-4-6-8---||
|-------4-6---------4-6---------4-6---------4-6-0-||
  . . . . . . . . . . . . . . . . . . . . . . . .

(6:15) RIFF 4 / gtr. 1
|---------------0--------------------------------------------||
|---------------0--------------------------------------------||
|--------------------------------------------0h3-------------||
|---------------------6-6-4-7--------6---------------6-6-4-5-||
|-------------4---4---4-4-2-5--4-----4-4---------4---4-4-2-3-||
|-------------2---2------------2---0---2---0-----2-----------||
              .        . . . .     .       .         . . . .

(6:15) RIFF 4 / gtr. 2
|---------------0--------------------------------------------||
|---------------0--------------------------------------------||
|--------------------------------------------0h3-------------||
|-------6-------------6-6-4-7--------6---------------6-6-4-5-||
|-4-----4-4---4---4---4-4-2-5--4-----4-4---------4---4-4-2-3-||
|-2---0---2---2---2------------2---0---2---0-----2-----------||
      .       .        . . . .     .       .         . . . .

(6:19) RIFF 4 / both gtr. = 3 times
|---------------0--------------------------------------------||
|---------------0--------------------------------------------||
|--------------------------------------------0h3-------------||
|-------6-------------6-6-4-7--------6---------------6-6-4-5-||
|-4-----4-4---4---4---4-4-2-5--4-----4-4---------4---4-4-2-3-||
|-2---0---2---2---2------------2---0---2---0-----2-----------||
      .       .       . . . .      .       .         . . . .

(6:33) RIFF 4b / both gtr. = 2 times
|---------------0----------------------------0-------------||
|---------------0----------------------------0-------------||
|----------------------------------------------------------||
|-------6-------------5-6---5--------6-------------5-6---7-||
|-4-----4-4---4---4---3-4-4-3--4-----4-4---4---4---3-4-5-5-||
|-2---0---2---2---2-------2----2---0---2---2---2-------3---||
      .       .                    .       .

(6:43) RIFF 4d / both gtr.
|---------------0----------------------------0-------||
|---------------0----------------------------0-------||
|----------------------------------------------------||
|-------6-------------5-6---5--------6---------------||
|-4-----4-4---4---4---3-4-4-3--4-----4-4---4---4---4-||
|-2---0---2---2---2-------2----2---0---2---2---2---2-||
      .       .                    .       .
(6:48) ending both gtr.
|----------------------||
|----------------------||
|----------------------||
|-2--------------------||
|-2--------------------||
|-0--------------------||


END.
comments
We did not receive enough feedback on this tab! Please rate:
print report bad tab
1 2 3 4 5
I want to post or [tab]
guest
You may want to rate the tab now too:
select rating
Please do not post tabs as comments. Select "correction" instead!