Oops, an error
Loading. Please wait.

Benedictine Convulsions Tab

ver2
ver2

Whole song

Interactive

More versions @911Tabs.com
96 views 1 this week
no commentswrite comment
1 2 3 4 5
please rate
Autoscroll
+/-
esc
set tempo
stop
Contributor
Hey! There's an official Ultimate Guitar app which is ideal
for learning songs when you're away from computer. Get the app
WARNING: You are trying to view
                                    content from Ultimate-Guitar.com
                                    in an unauthorized application,
                                    which is prohibited.

                                    Please use an official Ultimate
                                    Guitar Tabs application for iPhone,
                                    iPad or Android to access legitimate
                                    chords, guitar, bass, and drum tabs
                                    from Ultimate-Guitar.com database.

                                    Type "ultimate guitar tabs" in Apple
                                    App Store's or Android Market's
                                    search to find the application.
Tuning B E A D F# B




 Riff 1 (0:00)
  Gtrs. 1&2
||---------------------------------------------------------------------------||
||---------------------------------------------------------------------------||
||-------------------------------------------------------------7h8p7---------||
||-1~--------------1~--------------1~----------------------8-----------------||
||-1~----------4~--1~----------4~--1~----------4~--4---7---6---------6-------||
||-----5-1-4-0-4~------5-1-4-0-4~------5-1-4-0-4~--2---5-------------4-------||
       . . . .         . . . .         . . . .     .   .   .         .



 Riff 2 (0:05)
   Gtrs. 1&2
||------------------------------------------------------------------|
||.-----------------------------------------------------------------|
||------------------------------------------------------------------|
||.------9-----7-------------------------9-----7--------------------|
||-2---8-7-8---5-----------555588882---8-7-8---5-----------55558888-|
||-0---6---6-------44447777--------0---6---6-------44447777---------|
        .                              .
    Riff 2 (Cont.)
    Gtr. 1                                                             2x
 |-----------------------------------------------------------------------||
 |----------------------------------------------------------------------.||
 |------------------------------------------(5)///8~-----------(5)///8~--||
 |-------9-----7----------------------------(4)///7~-----------(4)///7~-.||
 |-2---8-7-8---5-----------555588883-2---3------------3-2---3------------||
 |-0---6---6-------44447777--------1-0---1------------1-0---1------------||
 |      .                          . .   .            . .   .             ||
 | Gtr. 2                                                                 ||
 |-----------------------------------------------------------------------||
 |----------------------------------------------------------------------.||
 |-----------------------------------------------------------------------||
 |-------9-----7----------------------------(4)///7~-----------(4)///7~-.||
 |-2---8-7-8---5-----------555588883-2---3--(3)///6~--3-2---3--(3)///6~--||
 |-0---6---6-------44447777--------1-0---1------------1-0---1------------||
        .                          . .   .            . .   .
 Riff 2a (0:22)
   Gtrs. 1&2
||------------------------------------------------------------------|
||------------------------------------------------------------------|
||------------------------------------------------------------------|
||-------9-----7-------------------------9-----7--------------------|
||-2---8-7-8---5---6-------555588882---8-7-8---5---6-------55558888-|
||-0---6---6-------4---7777--------0---6---6-------4---7777---------|
        .           .                  .           .
    Riff 2a (Cont.)
    Gtr. 1
 |-----------------------------------------------------------------------||
 |-----------------------------------------------------------------------||
 |------------------------------------------(5)///8~-----------(5)///8~--||
 |-------9-----7----------------------------(4)///7~-----------(4)///7~--||
 |-2---8-7-8---5---6-------555588883-2---3------------3-2---3------------||
 |-0---6---6-------4---7777--------1-0---1------------1-0---1------------||
 |      .           .              . .   .            . .   .            ||
 | Gtr. 2                                                                ||
 |-----------------------------------------------------------------------||
 |-----------------------------------------------------------------------||
 |-----------------------------------------------------------------------||
 |-------9-----7----------------------------(4)///7~-----------(4)///7~--||
 |-2---8-7-8---5---6-------555588883-2---3--(3)///6~--3-2---3--(3)///6~--||
 |-0---6---6-------4---7777--------1-0---1------------1-0---1------------||
        .           .              . .   .            . .   .



 Riff 3 (0:31)
   Gtr. 1
||-----------------------------------------------------------------------------||
||-----------------------------------------------------------------------------||
||-----------------------------------------------------------------------------||
||-------------------------------------4------------------4------------------4-||
||-3---------------------------------5-2----------------5-2-3--------------5-2-||
||-1---------------------------------3------------------3---1--------------3---||
|| .                                 . .                . . .              . . ||
|| Gtr. 2                                                                      ||
||-----------------------------------------------------------------------------||
||-----------------------------------------------------------------------------||
||-----------------------------------------------------------------------------||
||----------(4)///7~-----------(4)///7~-----------(4)///7~-----------(4)///7~--||
||-3-2---3--(3)///6~--3-2---3--(3)///6~--3-2---3--(3)///6~--3-2---3--(3)///6~--||
||-1-0---1------------1-0---1------------1-0---1------------1-0---1------------||
   . .   .            . .   .            . .   .            . .   .



 Riff 4 (0:35)
   Gtr. 1                                                                   4x
||-----------------------------------------------------------------------------||
||.---------------------------------------------------------------------------.||
||----------(5)///8~-----------(5)///8~-----------(5)///8~-----------(5)///8~--||
||.---------(4)///7~-----------(4)///7~-----------(4)///7~-----------(4)///7~-.||
||-3-2---3------------3-2---3------------3-2---3------------3-2---3------------||
||-1-0---1------------1-0---1------------1-0---1------------1-0---1------------||
|| . .   .            . .   .            . .   .            . .   .            ||
|| Gtr. 2                                                                      ||
||-----------------------------------------------------------------------------||
||.---------------------------------------------------------------------------.||
||-----------------------------------------------------------------------------||
||.---------(4)///7~-----------(4)///7~-----------(4)///7~-----------(4)///7~-.||
||-3-2---3--(3)///6~--3-2---3--(3)///6~--3-2---3--(3)///6~--3-2---3--(3)///6~--||
||-1-0---1------------1-0---1------------1-0---1------------1-0---1------------||
   . .   .            . .   .            . .   .            . .   .
 Riff 5 (0:54)
   Gtr.1                                                              4x
||----------------------------------------------------------------------||
||.--------------------------------------------------------------------.||
||----------------------------------------------------------------------||
||.--------------------------------------------------------------------.||
||-2---------------2-----------------2---------------2------------------||
||-0-000-------000-0-111-111-333-444-0-000-------000-0-111-111-333-444--||
|| . ...       ... . ... ... ... ... . ...       ... . ... ... ... ... ||
|| Gtr.2                                                                 ||
||----------------------------------------------------------------------||
||.--------------------------------------------------------------------.||
||----------------------------------------------------------------------||
||.--------------------------------------------------------------------.||
||-2---------------2-----------------2---------------2-----444-333-444--||
||-0-000-------000-0-111-111-333-444-0-000-------000-0-111-444-333-444--||
   . ...       ... . ... ... ... ... . ...       ... . ... ... ... ...


 Riff 2b (1:12)
   Gtrs. 1&2
||------------------------------------------------------------------|
||.-----------------------------------------------------------------|
||------------------------------------------------------------------|
||.------9-----7-------------------------9-----7--------------------|
||-2---8-7-8---5-----------555588882---8-7-8---5-----------55558888-|
||-0---6---6-------44447777--------0---6---6-------44447777---------|
        .                               .
   Riff 2b (Cont.)
    Gtr. 1
 |------------------------------------------------------------------|
 |------------------------------------------------------------------|
 |------------------------------------------------------------------|
 |-------9-----7---------------------------5555----00003333----3333-|
 |-2---8-7-8---5-----------555588883333--------2222--------2222-----|
 |-0---6---6-------44447777------------4444-------------------------|
 |      .                                                           |
 | Gtr. 2                                                           |
 |------------------------------------------------------------------|
 |------------------------------------------------------------------|
 |-----------------------------------------7777--------5555----7777-|
 |-------9-----7-------------------55558888----44447777----4444-----|
 |-2---8-7-8---5-----------55558888---------------------------------|
 |-0---6---6-------44447777-----------------------------------------|
        .
 Riff 2b (Cont.)
   Gtrs. 1&2
 |------------------------------------------------------------------|
 |------------------------------------------------------------------|
 |------------------------------------------------------------------|
 |-------9-----7-------------------------9-----7--------------------|
 |-2---8-7-8---5-----------555588882---8-7-8---5-----------55558888-|
 |-0---6---6-------44447777--------0---6---6-------44447777---------|
        .                              .
 Riff 2b (Cont.)
   Gtrs. 1&2
 |-----------------------------------||
 |-----------------------------------||
 |-----------------------------------||
 |-------9-----7---------------------||
 |-2---8-7-8---5-----------55558888--||
 |-0---6---6-------44447777----------||
 |      .                            ||
 |                                   ||
 |-----------------------------------||
 |-----------------------------------||
 |-----------------------------5555--||
 |-------9-----7-------44447777------||
 |-2---8-7-8---5---------------------||
 |-0---6---6-------4444--------------||
        .
 Riff 6 (1:28)
  Gtrs. 1&2
||--------------------------------------------------------------------------------|
||--------------------------------------------------------------------------------|
||--------------------------------------------------------------------------------|
||-1~--------------1~--------------1~--------------1~--------------1~-------------|
||-1~----------4~--1~----------4~--1~----------4~--1~----------4~--1~----------4~-|
||-----5-1-4-0-4~------5-1-4-0-4~------5-1-4-0-4~------5-1-4-0-4~------5-1-4-0-4~-|
       . . . .         . . . .         . . . .         . . . .         . . . .
 Riff 6 (Cont.)
  Gtrs. 1&2
 |------------------------------------------------------------------------------||
 |------------------------------------------------------------------------------||
 |------------------------------------------------------------------------------||
 |-1~--------------1~--------------1~--------------9~------7--------------------||
 |-1~----------4~--1~----------4~--1~----------4~--7~------5--------------------||
 |-----5-1-4-0-4~------5-1-4-0-4~------5-1-4-0-4~--7~------5-------15\--\--\--\-||
       . . . .         . . . .         . . . .             .



 Riff 5 4x (1:39)



 Riff 7 (1:57)
   Gtr. 1
||-----------------------------------------------------------------||
||-----------------------------------------------------------------||
||-----------------------------------------------------------------||
||-----------------8~------9~--4-------------------8~------9~--4---||
||-2---------------6~------7~--2---77777777--------6~------7~--2---||
||-0---------------6~------7~--2-----------888888886~------7~--2---||
|| .                                                               ||
|| Gtr. 2                                                          ||
||-----------------------------------------------------------------||
||-----------------------------------------------------------------||
||-----------------------------------------------------------------||
||-55555555666666668~------9~--4---55555555666666668~------9~--4---||
||-77777777888888886~------7~--2---77777777888888886~------7~--2---||
||-----------------6~------7~--2-------------------6~------7~--2---||




 Riff 7a (2:03)
   Gtr. 1
||-----------------------------------------------------------------||
||-----------------------------------------------------------------||
||-----------------------------------------------------------------||
||-----------------8~------9~--4-------------------8~------9~--4---||
||-77777777--------6~------7~--2---77777777--------6~------7~--2---||
||---------888888886~------7~--2-----------888888886~------7~--2---||
||                                                                 ||
|| Gtr. 2                                                          ||
||-----------------------------------------------------------------||
||-----------------------------------------------------------------||
||-----------------------------------------------------------------||
||-55555555666666668~------9~--4---55555555666666668~------9~--4---||
||-77777777888888886~------7~--2---77777777888888886~------7~--2---||
||-----------------6~------7~--2-------------------6~------7~--2---||
 Riff 7b (2:09)
   Gtr. 1
||-----------------------------------------------------------------||
||-----------------------------------------------------------------||
||-----------------------------------------------------------------||
||-----------------8~------9~--4-------------------8~------9~--4---||
||-7-7-7-7-8-8-8-8-6~------7~--2---7-7-7-7-8-8-8-8-6~------7~--2---||
||-----------------6~------7~--2-------------------6~------7~--2---||
||                                                                 ||
|| Gtr. 2                                                          ||
||-3333333344444444----------------3333333344444444----------------||
||-5555555566666666----------------5555555566666666----------------||
||-4444444455555555----------------4444444455555555----------------||
||-----------------8~------9~--4-------------------8~------9~--4---||
||-----------------6~------7~--2-------------------6~------7~--2---||
||-----------------6~------7~--2-------------------6~------7~--2---||



 Riff 7a 2x (2:15 - w/Solo)



 Riff 8 (2:26)
  Gtrs. 1&2                                                                2x
||---------------------------------------------------------------------------||
||.-------------------------------------------------------------------------.||
||---------------------------3344--4455------------6h7p6h7-------3344--4455--||
||.--------7---5h6p5h6-6---22----33------------7-6-------------22----33-----.||
||-------8-5-8---------4---------------------8-5-4---------6-----------------||
||-3333336---6-------------------------3333336-------------4-----------------||
         . . .                             . . .



 Riff 9 (2:37)
  Gtrs. 1&2
||----------------------------------||
||----------------------------------||
||---3344--4455--55--3344--4455--55-||
||-22----33----44--22----33----44---||
||----------------------------------||
||----------------------------------||



 Riff 8 2x (2:40)



 Riff 9a (2:52)
  Gtrs. 1&2
||-------------------------------------------------------------------||
||-------------------------------------------------------------------||
||---3344--4455--55--3344--4455--55--3344--4455--55------------------||
||-22----33----44--22----33----44--22----33----44-----------7--------||
||-------------------------------------------------5-----8--5--5--4--||
||-------------------------------------------------3-----6-----3--2--||
                                                         . . .



 Riff 9b (2:58)
  Gtrs. 1&2
||-------------------------------------------------------------------||
||-------------------------------------------------------------------||
||---3344--4455--55--3344--4455--55--3344--4455--55------------------||
||-22----33----44--22----33----44--22----33----44--------------------||
||-------------------------------------------------5-----------------||
||-------------------------------------------------3-----------------||
                                                   .
 Riff 10 (3:04)
  Gtrs. 1&2
||-----------------------------------------------------------------|
||-----------------------------------------------------------------|
||-----------------------------------------------------------------|
||-----------------------------------------------------------------|
||---1-2---2-3---3---1-2---2-3---3---1-2---2-3---3---1-2---2-3---3-|
||-0-----1-----2---0-----1-----2---0-----1-----2---0-----1-----2---|
                                                                 .
 Riff 10 (Cont.)
  Gtrs. 1&2
 |-----------------------------------------------------------------||
 |-----------------------------------------------------------------||
 |-----------------------------------------------------------------||
 |---3-4---4-5---5---3-4---4-5---5---3-4---4-5---5---3-4---4-5---5-||
 |-2-1-2-3-2-3-4-3-2-1-2-3-2-3-4-3-2-1-2-3-2-3-4-3-2-1-2-3-2-3-4-3-||
 |-0-----1-----2---0-----1-----2---0-----1-----2---0-----1-----2---||
   . . . . . . . . . . . . . . . . . . . . . . . . . . . . . . . .



 Riff 8 1x (3:15)



 Riff 9b 1x (3:21)



 Riff 4 4x (3:28)



 Riff 4a (3:50)
   Gtr. 1
||------------------------------------------------------------------------------||
||------------------------------------------------------------------------------||
||----------(5)///8~-----------(5)///8~-----------(5)///8~----------------------||
||----------(4)///7~-----------(4)///7~-----------(4)///7~----------------------||
||-3-2----------------3-2----------------3-2----------------3-2-2-------6-7-2---||
||-1-0----------------1-0----------------1-0----------------1-0-0-------4-5-0---||
|| . .                . .                . .                . . .               ||
|| Gtr. 2                                                                       ||
||------------------------------------------------------------------------------||
||------------------------------------------------------------------------------||
||------------------------------------------------------------------------------||
||----------(4)///7~-----------(4)///7~-----------(4)///7~----------------------||
||-3-2------(3)///6~--3-2------(3)///6~--3-2------(3)///6~--3-2-2-------6-7-2---||
||-1-0----------------1-0----------------1-0----------------1-0-0-------4-5-0---||
   . .                . .                . .                . . .

End.
comments
We did not receive enough feedback on this tab! Please rate:
print report bad tab
1 2 3 4 5
I want to post or [tab]
guest
You may want to rate the tab now too:
select rating
Please do not post tabs as comments. Select "correction" instead!