Oops, an error
Loading. Please wait.

Crown Of Horns Tab

ver2
ver2

Whole song

Interactive

More versions @911Tabs.com
97 views 1 this week
no commentswrite comment
1 2 3 4 5
please rate
add to favorites launch autoscroll
font size
0
reset
Autoscroll
+/-
esc
set tempo
stop
Contributor
WARNING: You are trying to view
                                    content from Ultimate-Guitar.com
                                    in an unauthorized application,
                                    which is prohibited.

                                    Please use an official Ultimate
                                    Guitar Tabs application for iPhone,
                                    iPad or Android to access legitimate
                                    chords, guitar, bass, and drum tabs
                                    from Ultimate-Guitar.com database.

                                    Type "ultimate guitar tabs" in Apple
                                    App Store's or Android Market's
                                    search to find the application.
Tuning B E A D F# B
"RRRRRROOOOOOOOOOOAAAAAAAAAAAAARRRRRRRRRRRRRR"

"....I do that rather well......Don't you think?"

 Riff 1 (0:16)
  Gtrs. 1&2
||-----------|----------------------------------||
||-----------|.--------This-Section-4x---------.||
||-----------|----------------------------------||
||-----------|.------------------------------6-.||
||-6-------3-|-2-7\6/7-2-6-3/6-2-7-6-7-6-3-2-4--||
||-4-------1-|-0-5\4/5-0-4-1/4-0-5-4-5-4-1-0----||
   .       .                           . . .



 Riff 2 (0:28)
   Gtrs. 1&2                                                     2x
||-----------------------------------------------------------------|
||.---------------------------------------------------------------.|
||---------------------666655556666--------------------------------|
||.------------------------------------------------------------3--.|
||-------------44447777------------------------3333666666664---1---|
||-000000006666--------------------000000006666------------2-------|
                                                           .
 Riff 2 (Cont.)
    Gtr. 1                                                       2x
 |-----------------------------------------------------------------||
 |.---------------------------------------------------------------.||
 |---------------------666655556666--------------------------------||
 |.------------------------------------------------------------3--.||
 |-------------44447777------------------------3333666666664---1---||
 |-000000006666--------------------000000006666------------2-------||
 |                                                         .        ||
 | Gtr. 2                                                           ||
 |-----------------------------------------------------------------||
 |.--------------------666655556666-------------------------------.||
 |-----------------------------------------------------------------||
 |.------------------------------------------------------------3--.||
 |-------------44447777------------------------3333666666664---1---||
 |-000000006666--------------------000000006666------------2-------||
                                                           .



 Riff 1 1x (0:40)
 Riff 3 (0:53)
   Gtr. 1
||-----------------|------------------------------------------------------------------|
||-----------------|------------------------------------------------------------------|
||-----------------|------------------------------------------------------------------|
||-----------------|-----------------------------------------3333---------------------|
||-2---------------|-2-------------------------------------------22221111----11112222-|
||-0---------------|-0-------------------------------00001111------------3333---------|
||                                                                                    |
|| Gtr. 2                                                                             |
||-----------------|------------------------------------------------------------------|
||-----------------|------------------------------------------------------------------|
||-----------------|------------------------------------------------------------------|
||-----------------|---------3333----------------------------3333---------------------|
||-2---------------|-------------22221111----11112222------------22221111----11112222-|
||-0---------------|-00001111------------3333--------00001111------------3333---------|

 Riff 3 (Cont.)
  Gtrs. 1&2
 |------------------------------------------------------------------||
 |------------------------------------------------------------------||
 |------------------------------------------------------------------||
 |---------7777----------------------------7777---------------------||
 |-------------66665555----55556666------------66665555----66665555-||
 |-44445555------------7777--------44445555------------7777---------||




 Riff 4 (1:02)
  Gtrs. 1&2
||-----------------------------------------------------------------|
||.----------------------------------------------------------------|
||-----------------------------------------------------------------|
||.----------------------------------------------------------------|
||-2---7---3---7\3/6---6-6-7~--9~--10--6---9---6---9---6---7---6/7-|
||-0---5-0-1-0-5\1/4---4-4-5~--7~--8-0-4-0-7-0-4-0-7-0-4-0-5-0-4/5-|
       . . . .         . .           .   .   .   .   .   .   .
 Riff 4 (Cont.)
  Gtrs. 1&2                                                     2x
 |-----------------------------------------------------------------||
 |----------------------------------------------------------------.||
 |-----------------------------------------------------------------||
 |----------------------------------------------------------------.||
 |-2---7---3---6-2-3---3-3-6~--7~--10--6---9---6---9---6---6/7-3/6-||
 |-0---5-0-1-0-4-0-1---1-1-4~--5~--8-0-4-0-7-0-4-0-7-0-4-0-4/5-1/4-||
       . . . .   .     . .           .   .   .   .   .   .



 Riff 5 (1:19)
  Gtrs. 1&2                                                      2x
||-----------------------------------------------------------------||
||.---------------------------------------------------------------.||
||-----------------------------------------------------------------||
||.---------------------------------------------------------------.||
||-------------88883~--4---7---3---------------88883~--4---7---3---||
||-000066665555----4~--5---5---1---000066665555----4~--5---5---1---||
 Riff 3A (1:28)
  Gtrs. 1&2
||-------------------------------------------------------------------|
||-------------------------------------------------------------------|
||-------------------------------------------------------------------|
||---------3333----------------------------3333----------------------|
||-------------22221111----11112222------------22221111----11112222--|
||-00001111------------3333--------00001111------------3333----------|

 Riff 3A (Cont.)
  Gtrs. 1&2
 |------------------------------------------------------------------||
 |------------------------------------------------------------------||
 |------------------------------------------------------------------||
 |---------7777----------------------------7777------------8--------||
 |-------------66665555----55556666------------66665555----6--------||
 |-44445555------------7777--------44445555------------7777---------||
                                                           .



 Riff 5 2x (1:37)



 Riff 6 (1:46)
   Gtr. 1
||-----------------------------------------------------------------|
||-----------------------------------------------------------------|
||-----------------------------------------------------------------|
||-------------------------------------------------3-4-----4-5-----|
||-2---------------------------2-3-2~--4-3-7-8-2-4-1-2-2-5-2-3-2-3-|
||-0---------------------------0-1-0~--2-1-5-6-0-2-----0-3-----0-1-|
|| .                           . .     . . . . . . . . . . . . . . |
|| Gtr. 2                                                          |
||-----------------------------------------------------------------|
||-----------------------------------------------------------------|
||-----------------------------------------------------------------|
||-----------------3-4-----4-5---------------------3-4-----4-5-----|
||-2-2-4-3-7-8-2-4-1-2-2-5-2-3-2-3-2~--4-3-7-8-2-4-1-2-2-5-2-3-2-3-|
||-0-0-2-1-5-6-0-2-----0-3-----0-1-0~--2-1-5-6-0-2-----0-3-----0-1-|
   . . . . . . . . . . . . . . . .     . . . . . . . . . . . . . .
 Riff 6 (Cont.)
  Gtrs. 1&2                                                      4x
 |-----------------------------------------------------------------||
 |.---------------------------------------------------------------.||
 |-----------------------------------------------------------------||
 |.----------------3-4-----4-5---------------------3-4-----4-5----.||
 |-2~--4-3-7-8-2-4-1-2-2-5-2-3-2-3-2~--4-3-7-8-2-4-1-2-2-5-2-3-2-3-||
 |-0~--2-1-5-6-0-2-----0-3-----0-1-0~--2-1-5-6-0-2-----0-3-----0-1-||
       . . . . . . . . . . . . . .     . . . . . . . . . . . . . .



 Riff 7 (2:10)
   Gtr. 1
||-----------------------------------------------------------------||
||----------------------------------------------------------------.||
||-----------------------------------------------------------------||
||----------------------------------------------------------------.||
||---------0/1-----1/2-----2/3-------------0/1-----1/2-----2/3-----||
||-0-0-1/2-----2/3-----3/4-----0-1-0-0-1/2-----2/3-----3/4-----0-1-||
||                                                                 ||
|| Gtr. 2                                                          ||
||-----------------------------------------------------------------||
||----------------------------------------------------------------.||
||-----------------------------------------2/3-----3/4-----4/5-----||
||----------------------------------------------------------------.||
||---------0/1-----1/2-----2/3-------------------------------------||
||-0-0-1/2-----2/3-----3/4-----0-1-0-0-1/2-----2/3-----3/4-----0-1-||
 Riff 8 (2:19)
  Gtrs. 1&2
||--------------------------------------------------|
||.-------------------------------------------------|
||--------------------------------------------------|
||.6666----------------------------------------6666-|
||-----77774444----44447777----3333666644447777-----|
||-------------5555--------4444---------------------|

 Riff 8 (Cont.)
   Gtr. 1                                          2x
 |---------------------------------------------------||
 |--------------------------------------------------.||
 |---------------------------------------------------||
 |-6666----------------------------------------6666-.||
 |-----77774444----44447777----3333666644447777------||
 |-------------5555--------4444----------------------||
 |                                                   ||
 |Gtr. 2                                             ||
 |---------------------------------------------------||
 |--------------------------------------------------.||
 |-5555----------------------------------------5555--||
 |-----6666------------6666--------4444----6666-----.||
 |---------777744447777----33336666----7777----------||
 |---------------------------------------------------||




 Riff 4 2x (2:33)




 Riff 8A (2:50)
   Gtr. 1                                            2x
||---------------------------------------------------||
||--------------------------------------------------.||
||---------------------------------------------------||
||-6666---------------------------------6-----------.||
||-----77774444----44447777-------------4---2---6----||
||-------------5555-------------------------0---4----||
||                                          .   .       ||
||Gtr. 2                                                ||
||---------------------------------------------------||
||--------------------------------------------------.||
||-5555----------------------------------------------||
||-----6666------------6666-------------6-----------.||
||---------777744447777-----------------4---2---6----||
||------------------------------------------0---4----||
                                            .   .
 Riff 8A (Cont.) - With Lead Guitar
   Gtrs. 1&2                                      4x
 |--------------------------------------------------||
 |.------------------------------------------------.||
 |--------------------------------------------------||
 |.6666----------------------------------------6666.||
 |-----77774444----44447777----3333666644447777-----||
 |-------------5555--------4444---------------------||
 Riff 5A (3:06)
   Gtr. 1
||-----------------------------------------------------------------||
||-----------------------------------------------------------------||
||-----------------------------------------------------------------||
||-----------------------------------------------------------------||
||-------------88883~--4---7---3---------------88883~--4-----------||
||-000066665555----4~--5---5---1---000066665555----4~--5-----------||
||                                                                 ||
|| Gtr. 2                                                          ||
||-----------------------------------------------------------------||
||-----------------------------------------------------------------||
||-----------------------------------------------------------------||
||-----------------------------------------------------------------||
||-2---------------3~--4---7---3-------------------3~--4-----------||
||-0---------------4~--5---5---1-------------------4~--5-----------||
   .



 Riff 3B (3:11)
  Gtrs. 1&2
||------------------------------------------------------------------|
||------------------------------------------------------------------|
||------------------------------------------------------------------|
||---------3333----------------4-----------3333---------------------|
||-------------22221111----11112---------------22221111----11112222-|
||-00001111------------3333--------00001111------------3333---------|
                               .
 Riff 3B (Cont.)
  Gtrs. 1&2
 |------------------------------------------------------------------||
 |------------------------------------------------------------------||
 |------------------------------------------------------------------||
 |---------7777----------------8-----------7777---------------------||
 |-------------66665555----55556---------------66665555----66665555-||
 |-44445555------------7777--------44445555------------7777---------||
                               .



 Riff 5B (3:20)
  Gtrs. 1&2
||-----------------------------------------------------------------|
||-----------------------------------------------------------------|
||-----------------------------------------------------------------|
||-----------------------------------------------------------------|
||-------------88883~--4---7---3---------------88883~--4---7---3---|
||-000066665555----4~--5---5---1---000066665555----4~--5---5---1---|

 Riff 5B (Cont.)
  Gtrs. 1&2
 |-----------------------------------------------------------------||
 |-----------------------------------------------------------------||
 |-----------------------------------------------------------------||
 |-----------------------------------------------------------------||
 |-------------88883~--4---7---3---------------88883~--4---7---2~--||
 |-000066665555----4~--5---5---1---000066665555----4~--5---5---0~--||
 Riff 9 (3:30)
  Gtrs. 1&2                                                       2x
||------------------------------------------------------------------||
||.----------------------------------------------------------------.||
||------------------------------------------------------------------||
||.3-------3-------3-------3-------3-------3-------3-------3-------.||
||-3-------3-------3-------3-------3-------3-------3-------3--------||
||-1---00001---00001---00001---00001---00001---00001---00001---0000-||




 Riff 1 1x (3:43)



 Riff 10 (3:56)
  Gtrs. 1&2
||----------------------||
||----------------------||
||----------------------||
||----------------------||
||-3---2---6-6-7---2~---||
||-1---0---4-4-5---0~---||
   .   .   . . .

End.
comments
We did not receive enough feedback on this tab! Please rate:
print report bad tab
1 2 3 4 5
I want to post or [tab]
guest
You may want to rate the tab now too:
select rating
Please do not post tabs as comments. Select "correction" instead!