Oops, an error
Loading. Please wait.

Dead And Dripping Tab

ver2
ver2

Whole song

Interactive

More versions @911Tabs.com
99 views 6 this week
no commentswrite comment
1 2 3 4 5
excellent!
x 2
Autoscroll
+/-
esc
set tempo
stop
Contributor
WARNING: You are trying to view
                                    content from Ultimate-Guitar.com
                                    in an unauthorized application,
                                    which is prohibited.

                                    Please use an official Ultimate
                                    Guitar Tabs application for iPhone,
                                    iPad or Android to access legitimate
                                    chords, guitar, bass, and drum tabs
                                    from Ultimate-Guitar.com database.

                                    Type "ultimate guitar tabs" in Apple
                                    App Store's or Android Market's
                                    search to find the application.
Tuning B E A D F# B

 Riff 1 (0:00)
   Gtr. 1
||------------------------------------------------------------------|
||------------------------------------------------------------------|
||------------------------------------------------------------------|
||---------------------------------------------------------66669999-|
||-00003333666666665555333322223333000033336666666655553333---------|
||------------------------------------------------------------------|
||                                                                  |
|| Gtr. 2                                                           |
||------------------------------------------------------------------|
||------------------------------------------------------------------|
||------------------------------------------------------------------|
||-2----------------------------------------------------------------|
||-0-------------------------------------------------------333-2----|
||------------------------------------------------------------------|
   .                                                       ... .
 Riff 1 (Cont.)
   Gtr. 1
 |------------------------------------------------------------------||
 |------------------------------------------------------------------||
 |------------------------------------------------------------------||
 |---------------------------------------------------------66669999-||
 |-00003333666666665555333322223333000033336666666655553333---------||
 |------------------------------------------------------------------||
 |                                                                  ||
 | Gtr. 2                                                           ||
 |------------------------------------------------------------------||
 |------------------------------------------------------------------||
 |------------------------------------------------------------------||
 |-2-----------------------------------2----------------------------||
 |-0-----------------------------------0----------------------------||
 |------------------------------------------------------------------||
   .                                   .



 Riff 2 (0:08)
  Gtrs. 1&2                                                        2x
||-------------------------------------------------------------------||
||.-----------------------------------------------------------------.||
||-------------------------------------------------------------------||
||.-----------------------------------------------------------------.||
||---------------------------------------------------------66669999--||
||-00003333666666665555333322223333000033336666666655553333----------||


 Riff 3 (0:14)
  Gtrs. 1&2                                                        2x
||-------------------------------------------------------------------||
||.-----------------------------------------------------------------.||
||-------------------------------------------------------------------||
||.--------------------------------------------------------66669999-.||
||-00003333666666665555333322223333000033336666666655553333----------||
||-------------------------------------------------------------------||
 Riff 2 2x (0:21)



 Riff 4 (0:28)
  Gtrs. 1&2                                              4x
||---------------------------------------------------------||
||.-------------------------------------------------------.||
||---------------------------------------------------------||
||.---------6h9-----------6h9-----------6h9-----------6h9-.||
||-7--9--10------7--9--10------7--9--10------7--9--10------||
||-7--7--8-------7--7--8-------7--7--8-------7--7--8-------||
   . . .         . . .         . . .         . . .



 Riff 3 2x (0:44)



 Riff 2 4x (0:51)



 Riff 5 (1:06)
   Gtr. 1
||------------------------------------------------------------------|
||------------------------------------------------------------------|
||------------------------------------------------------------------|
||---------44444444--------44443333--------44444444--------44443333-|
||------------------------------------------------------------------|
||-00001111--------00001111--------00001111--------00001111---------|
||                                                                  |
|| Gtr. 2                                                           |
||------------------------------------------------------------------|
||------------------------------------------------------------------|
||------------------------------------------------------------------|
||-------------------------555-4---------------------------666-5----|
||-2-----------------------333-2---------------------------444-3----|
||-0----------------------------------------------------------------|
   .                       ... .                           ... .
 Riff 5 (Cont.)
   Gtr. 1
 |------------------------------------------------------------------||
 |------------------------------------------------------------------||
 |------------------------------------------------------------------||
 |---------44444444--------44443333--------44444444--------44443333-||
 |------------------------------------------------------------------||
 |-00001111--------00001111--------00001111--------00001111---------||
 |                                                                  ||
 | Gtr. 2                                                           ||
 |------------------------------------------------------------------||
 |------------------------------------------------------------------||
 |-----------------------------------------55555555--------55554444-||
 |-------------------------555-4------------------------------------||
 |---------3---------------333-2------------------------------------||
 |---------1-----------------------0---1-----------00001111---------||
           .               ... .
 Riff 6 (1:15)
   Gtr. 1                                                          4x
||-------------------------------------------------------------------||
||.-----------------------------------------------------------------.||
||-------------------------------------------------------------------||
||.--------44444444--------44443333--------44444444--------44443333-.||
||-------------------------------------------------------------------||
||-00001111--------00001111--------00001111--------00001111----------||
||                                                                    ||
|| Gtr. 2                                                             ||
||-------------------------------------------------------------------||
||.-----------------------------------------------------------------.||
||---------55555555--------55554444--------55555555--------55554444--||
||.-----------------------------------------------------------------.||
||-------------------------------------------------------------------||
||-00001111--------00001111--------00001111--------00001111----------||


 Riff 4 2x (1:33)

 Solo (1:41)
              nh------¬
||-------------5-----------|--------------------------------|
||---------------5---5-7---|--------------------------------|
||-----------------5-------|--------------------------------|
||-------------------------|------------------10h11h13p10~~-|
||-/7~---------------------|2/5h7h8-7h8h10h12---------------|
||-------------------------|--------------------------------|

 |-------------------------|-15bf--hold---r------------------|
 |-----------------15p13p12|----------------------1213151312-|
 |------12------11---------|----------------111214-----------|
 |-/14------14-------------|---------------------------------|
 |-------------------------|---------------------------------|
 |-------------------------|---------------------------------|

 |--------------------------|-20bf-19bf-17bf----hold----r-|
 |--------------/15--13--12-|-----------------------------|
 |--------------------------|-----------------------------|
 |-/12---10---9-------------|-----------------------------|
 |--------------------------|-----------------------------|
 |--------------------------|-----------------------------|

 |-171920-15-17-1415171215------|-------------------------12|
 |-------------------------13~~-|-------1213151312------13--|
 |------------------------------|-111214--------------14----|
 |------------------------------|-------------------14------|
 |------------------------------|---------------------------|
 |------------------------------|---------------------------|

 |-18bh------hold---------r-|--p12------12h18p12h15p12-------|
 |--------------------------|-----13------------------13-----|
 |--------------------------|-------14------------------14---|
 |--------------------------|---------14------------------14-|
 |--------------------------|--------------------------------|
 |--------------------------|--------------------------------|

 |-12h18p12h15p12------12h18p12h15p12----------12h15p12-|
 |---------------13------------------13------13---------|
 |-----------------14------------------14--14-----------|
 |-------------------14------------------14-------------|
 |------------------------------------------------------|
 |------------------------------------------------------|

 |-(12)\------------|------------------||
 |------------------|------------------||
 |------------------|------------------||
 |------------------|------------------||
 |------------------|------------------||
 |------------------|------------------||
 Riff 2 3x (1:41 - w/solo)



 Riff 2a (1:53 - w/solo)
   Gtrs. 1&2
||------------------------------------------------------------------||
||---------------------------------------------------------<-rit.>--||
||------------------------------------------------------------------||
||---------------------------------------------------------8-8-4-4--||
||---------------------------------------------------------6-6-2-2--||
||-00003333666666665555333322223333000033336666666655553333---------||
||                                                         . . . . ||
|| Gtr.2                                                            ||
||------------------------------------------------------------------||
||---------------------------------------------------------<-rit.>--||
||-------------------------------------------------------------6-6--||
||---------------------------------------------------------8-8-4-4--||
||---------------------------------------------------------6-6------||
||-00003333666666665555333322223333000033336666666655553333---------||
                                                           . . . .


 Riff 7 (1:57 - 1st Time w/solo)
  Gtrs. 1&2                                                        4x
||-------------------------------------------------------------------||
||.-----------------------------------------------------------------.||
||-------------------------------------------------------------------||
||.----------------1~------5~------4~------5~------4~-------3-------.||
||-2~------4-------1~------3~------2~------3~------2~-------1--------||
||-0~------2---------------3~------2~------3~------2~-------1--------||
           .                                                .



 Riff 6 2x (2:28)



 Riff 4 1x (2:37)



 Riff 4a (2:42)
   Gtr. 1
||--------------------------------------------------------||
||--------------------------------------------------------||
||--------------------------------------------------------||
||----------6h9-----------6h9-----------6h9---------------||
||-7--9--10------7--9--10------7--9--10------7--9--10-----||
||-7--7--8-------7--7--8-------7--7--8-------7--7--8------||
|| . . .         . . .         . . .         . . .        ||
|| Gtr. 2                                                 ||
||--------------------------------------------------------||
||----------------------------------------------------ah--||
||----------------------------------------------------10~-||
||----------6h9-----------6h9-----------6h9---------------||
||-7--9--10------7--9--10------7--9--10------7--9--10-----||
||-7--7--8-------7--7--8-------7--7--8-------7--7--8------||
   . . .         . . .         . . .         . . .


 Riff 3 2x (2:46)

 Riff 2 2x (2:53)

 Riff 4 1x (3:00)

 Riff 2 4x (3:04)
 Riff 8 (3:19)
   Gtr. 1
||-----------------------------------------------------------------||
||-----------------------------------------------------------------||
||-----------------------------------------------------------------||
||-------------------------------------------5-4-7-----5-4-8-7-----||
||-2-------------------------------2-2-5-6-5-3-2-5-2-7-3-2-6-5-6-5-||
||-0-------------------------------0-0-3-4-3-------0-5---------4-3-||
|| .                                               . . . . . . . . ||
|| Gtr. 2                                                          ||
||-----------------------------------------------------------------||
||-----------------------------------------------------------------||
||-----------------------------------------------------------------||
||-----------5-4-7-----5-4-8-7---------------5-4-7-----5-4-8-7-----||
||-2-2-5-6-5-3-2-5-2-2-3-2-6-5-6-5-2-2-5-6-5-3-2-5-2-7-3-2-6-5-6-5-||
||-0-0-3-4-3-------0-0---------4-3-0-0-3-4-3-------0-5---------4-3-||
                                                   . . . . . . . .
 Riff 8 (Cont.)
  Gtrs. 1&2
 |-----------------------------------------------------------------|
 |-----------------------------------------------------------------|
 |-----------------------------------------------------------------|
 |-----------5-4-7-----5-4-8-7---------------5-4-7-----5-4-8-7-----|
 |-2-2-5-6-5-3-2-5-2-2-3-2-6-5-6-5-2-2-5-6-5-3-2-5-2-2-3-2-6-5-6-5-|
 |-0-0-3-4-3-------0-0---------4-3-0-0-3-4-3-------0-0---------4-3-|

 Riff 9 (Cont.)
  Gtrs. 1&2
 |-----------------------------------------------------------------|
 |-----------------------------------------------------------------|
 |-----------------------------------------------------------------|
 |-----------5-4-7-----5-4-8-7---------------5-4-7-----5-4-8-7-----|
 |-2-2-5-6-5-3-2-5-2-7-3-2-6-5-6-5-2-2-5-6-5-3-2-5-2-2-3-2-6-5-6-5-|
 |-0-0-3-4-3-------0-5---------4-3-0-0-3-4-3-------0-0---------4-3-|
                   . . . . . . . .
 Riff 9 (Cont.)
  Gtrs. 1&2
 |-----------------------------------------------------------------|
 |-----------------------------------------------------------------|
 |-----------------------------------------------------------------|
 |-----------5-4-7-----5-4-8-7---------------5-4-7-----5-4-8-7-----|
 |-2-2-5-6-5-3-2-5-2-2-3-2-6-5-6-5-2-2-5-6-5-3-2-5-2-7-3-2-6-5-6-5-|
 |-0-0-3-4-3-------0-0---------4-3-0-0-3-4-3-------0-5---------4-3-|
                                                               . .
 Riff 9 (Cont.)
  Gtrs. 1&2
 |-----------------------------------------------------------------|
 |-----------------------------------------------------------------|
 |-----------------------------------------------------------------|
 |-----------5-4-7-----5-4-8-7---------------5-4-7-----5-4-8-7-----|
 |-2-2-5-6-5-3-2-5-2-2-3-2-6-5-6-5-2-2-5-6-5-3-2-5-2-2-3-2-6-5-6-5-|
 |-0-0-3-4-3-------0-0---------4-3-0-0-3-4-3-------0-0---------4-3-|

 Riff 9 (Cont.)
  Gtrs. 1&2
 |--------------------------------------||
 |--------------------------------------||
 |--------------------------------------||
 |-----------5-4-7-----5-4-8-7----------||
 |-2-2-5-6-5-3-2-5-2-2-3-2-6-5-6-5-2----||
 |-0-0-3-4-3-------0-0---------4-3-0----||
   . . . . . . . .                 .

End.
comments
We did not receive enough feedback on this tab! Please rate:
print report bad tab
1 2 3 4 5
I want to post or [tab]
guest
You may want to rate the tab now too:
select rating
Please do not post tabs as comments. Select "correction" instead!