Oops, an error
Loading. Please wait.

Depths Youve Fallen Tab

ver1
ver1

Whole song

Interactive

More versions @911Tabs.com
13 views 1 this week
no commentswrite comment
1 2 3 4 5
please rate
Autoscroll
+/-
esc
set tempo
stop
Contributor
WARNING: You are trying to view
                                    content from Ultimate-Guitar.com
                                    in an unauthorized application,
                                    which is prohibited.

                                    Please use an official Ultimate
                                    Guitar Tabs application for iPhone,
                                    iPad or Android to access legitimate
                                    chords, guitar, bass, and drum tabs
                                    from Ultimate-Guitar.com database.

                                    Type "ultimate guitar tabs" in Apple
                                    App Store's or Android Market's
                                    search to find the application.
Tuning B E A D F# B


 Riff 1 (0:00)
   Gtr. 1
||-----------------------------------------------------------------|
||-----------------------------------------------------------------|
||-------------------777---777---777---777---777---777---777---777-|
||-----------------------------------------------------------------|
||-6-5-2-6-5-2-6-5-4-----4-----4-----4-----4-----4-----4-----4-----|
||-4-3-0-4-3-0-4-3-2-----------------------2-----------------------|
||                                                                 |
|| Gtr. 2                                                          |
||-----------------------------------------------------------------|
||-----------------------------------------------------------------|
||-----------------------------------------------------------------|
||-----------------------------------------------------------------|
||-6-5-2-6-5-2-6-5-4-555-4-555-4-555-4-555-4-555-4-555-4-555-4-555-|
||-4-3-0-4-3-0-4-3-2-----------------------2-----------------------|

 Riff 1 (Cont.)
   Gtr. 1
 |-----------------------------------------------------------------------------|
 |-----------------------------------------------------------------------------|
 |---777---777---777---777-------------------777---777---555---888---777---777-|
 |-----------------------------------------------------------------------------|
 |-4-----4-----4-----4-----6-5-2-6-5-2-6-5-4-----4-----4-----4-----6-----4-----|
 |-2-----------------------4-3-0-4-3-0-4-3-2-----------------------4-----------|
 |                                                                             |
 | Gtr. 2                                                                      |
 |-----------------------------------------------------------------------------|
 |-----------------------------------------------------------------------------|
 |-----------------------------------------------------------------------------|
 |-----------------------------------------------------------------------------|
 |-4-555-4-555-4-555-4-555-6-5-2-6-5-2-6-5-4-555-4-555-4-555-4-333-6-555-4-555-|
 |-2-----------------------4-3-0-4-3-0-4-3-2-----------------------4-----------|

 Riff 1 (Cont.)
   Gtr. 1                             2x
 |--------------------------------------|---------------||
 |-------------------------------------.|---------------||
 |---555---666---777---777---555---888--|---------------||
 |-------------------------------------.|---------------||
 |-4-----4-----6-----4-----4-----4------|-6-2-6-5-2-6-5-||
 |-------------4------------------------|-4-0-4-3-0-4-3-||
 |                                                      ||
 | Gtr. 2                                               || *Straight To
 |--------------------------------------|---------------||
 |-------------------------------------.|---------------|| Next Riff
 |--------------------------------------|---------------||
 |-------------------------------------.|---------------||
 |-4-555-4-333-6-555-4-555-4-555-4-333--|-6-2-6-5-2-6-5-||
 |-------------4------------------------|-4-0-4-3-0-4-3-||
 Riff 2 (0:27)
   Gtr. 1&2
||-------------------------------------------------------------------------||
||-------------------------------------------------------------------------||
||-------------------------------------------------------------------------||
||-----2233-----22-------223366337744~-----1122-----22-------223366227744~-||
||-6-22-------22--22-0002----------------00-------22--22-0002--------------||
||-4--------11-------------------------44-------11-------------------------||




 Riff 3 (0:33)
   Gtr. 1
||--------------------------------------||
||--------Pick-Scrapes------------------||
||--------------------------------------||
||--------x////---------------x\\\\\\//-||
||-2------x////-2------222--------------||
||-0------------0------000--------------||
||                                      ||
|| Gtr. 2                               ||
||--------------------------------------||
||-----------*Gradual-Slide-Up-Neck-----||
||--------------------------------------||
||-------*-----------------2/7~---------||
||-2-0/5\1/////-2------222-2/7~54326543-||
||-0------------0------000-----32104321-||




 Riff 4 (0:38)
   Gtr. 1&2            3x                                           2x
||-----------------------|--------------------------------------------|
||----------------------.|.------------------------------------------.|
||-----------------------|--------------------------------------------|
||------------6-----8\7~.|.-----------6-----8--------------6-----8\7~.|
||-2--8/9--5--4--6--6\5~-|-2--8/9--5--4--6--6---2--8/9--5--4--6--6\5~-|
||-0--6/7--3-----4-------|-0--6/7--3-----4----000--6/7--3-----4-------|

 Riff 4 (Cont.)
   Gtr. 1&2
 |-----------------------||
 |-----------------------||
 |-----------------------||
 |------------6-----8\7~-||
 |-2--8/9--5--4--6--6\5~-||
 |-0--6/7--3-----4-------||




 Riff 2 (0:51) 1x




 Riff 5 (0:57)
   Gtr. 1&2                         3x
||------------------------------------|------------------------------------||
||-----------------------------------.|------------------------------------||
||------------------------------------|------------------------------------||
||-----1122-----22-------------------.|-----1122-----22--------------------||
||------------22--22-32-32-22222-222--|------------22--22-32-32-22222-2222-||
||-4444-----11-------10-10-00000-000--|-4444-----11-------10-10-00000-0000-||
 Riff 6 (1:09)
   Gtr. 1                                                            2x
||---------------------------------------------------------------------||
||---------------------------Finish-Here-Second-Time->>-->>-->>-*-----.||
||---------------------------------------------------------------------||
||--------------------------------------------------------------------.||
||-32-32-22222-222--32-32-22222-222--32-32-22222-222--32-32-22222-223~-||
||-10-10-00000-000--10-10-00000-000--10-10-00000-000--10-10-00000-001~-||
||                                                                      ||
|| Gtr. 2                                                               ||
||---------------------------------------------------------------------||
||---------------------------Finish-Here-Second-Time->>-->>-->>-*-----.||
||---------------------------------------------------------------------||
||--------------------------------------------------------------------.||
||-32-32-22443-220--32-32-22443-220--32-32-22443-220--32-32-22443-22---||
||-10-10-00221------10-10-00221------10-10-00221------10-10-00221---1~-||




 Riff 7 (1:22)
   Gtr. 1
||-----------------------------------------------------------------------|
||-----------------------------------------------------------------------|
||-777---777---777---777---777---777---777---777---777---777---777---777-|
||-----------------------------------------------------------------------|
||-----4-----4-----4-----4-----4-----4-----4-----4-----4-----4-----4-----|
||-----------------------2-----------------------2-----------------------|
||                                                                       |
|| Gtr. 2                                                                |
||-----------------------------------------------------------------------|
||-----------------------------------------------------------------------|
||-----------------------------------------------------------------------|
||-----------------------------------------------------------------------|
||-555-4-555-4-555-4-555-4-555-4-555-4-555-4-555-4-555-4-555-4-555-4-555-|
||-----------------------2-----------------------2-----------------------|

 Riff 7 (Cont.)
   Gtr. 1
 |-----------------------------------------------------------------|
 |-----------------------------------------------------------------|
 |-------------------777---777---555---888---777---777---555---666-|
 |-----------------------------------------------------------------|
 |-6-5-2-6-5-2-6-5-4-----4-----4-----4-----6-----4-----4-----4-----|
 |-4-3-0-4-3-0-4-3-2-----------------------4-----------------------|
 |                                                                 |
 | Gtr. 2                                                          |
 |-----------------------------------------------------------------|
 |-----------------------------------------------------------------|
 |-----------------------------------------------------------------|
 |-----------------------------------------------------------------|
 |-6-5-2-6-5-2-6-5-4-555-4-555-4-555-4-333-6-555-4-555-4-555-4-333-|
 |-4-3-0-4-3-0-4-3-2-----------------------4-----------------------|

 Riff 7 (Cont.)
   Gtr. 1
 |-------------------------------------------------------------------|
 |-------------------------------------------------------------------|
 |---777---777---555---888-------------------777---777---777---777---|
 |-------------------------------------------------------------------|
 |-6-----4-----4-----4-----6-5-2-6-5-2-6-5-4-----4-----4-----4-----6-|
 |-4-----------------------4-3-0-4-3-0-4-3-2-----------------------4-|
 |                                                                   |
 | Gtr. 2                                                            |
 |-------------------------------------------------------------------|
 |-------------------------------------------------------------------|
 |-------------------------------------------------------------------|
 |-------------------------------------------------------------------|
 |-6-555-4-555-4-555-4-333-6-5-2-6-5-2-6-5-0-555-4-555-4-555-4-555-6-|
 |-4-----------------------4-3-0-4-3-0-4-3-2-----------------------4-|
 Riff 7 (Cont.)
   Gtr. 1
 |----------------------------------||
 |----------------------------------||
 |-777---777---777---777------------||
 |----------------------------------||
 |-----4-----4-----4-----6-3-4-5----||
 |-----------------------4-1-2-3----||
 |                                  ||
 | Gtr. 2                           ||
 |----------------------------------||
 |----------------------------------||
 |----------------------------------||
 |----------------------------------||
 |-555-4-555-4-555-4-333-6-3-4-5----||
 |-----------------------4-1-2-3----||




 Riff 8 (1:38)                                  ______ ______
   Gtr. 1&2                                   |     1. |   2.
||-------------------------------------------|-------|--------||
||-------------------------------------------|------.|--------||
||-------------------------------------------|-------|--------||
||-/8-----------3--6--4--7--8-----------4--6-|-3--7-.|-6--9---||
||-/6--7--3--4--1--4--2--5--6--7--3--4--2--4-|-1--5--|-4--7---||
||-----5--1--2-----------------5--1--2-------|-------|--------||




 Riff 9 (1:44)
   Gtr. 1&2
||----------------------------------||
||----------------------------------||
||----------------------------------||
||------------------------8---8---7-||
||-6666555565------666655-6-7-6-6-5-||
||-----------874444---------5---4---||




 Riff 10
   Gtr. 1&2                                      2x
||--------------------------------------------------||
||-------------------------------------------------.||
||--------------------------------------------------||
||----------4--6-----7--8------------4--6-----7--8-.||
||-2--3--6--2--4--8--5--6---2--3--6--2--4--8--5--6--||
||-0--1--4--------6---------0--1--4--------6--------||




 Riff 11 (1:53)
   Gtr. 1&2
||------------------------------------------------------------------|
||------------------------------------------------------------------|
||------------------------------------------------------------------|
||------------------------------------------------------------------|
||-666655556655----666655777744----666655556655----666655777744-----|
||-------------4444------------4444------------4444------------4444-|
 Riff 11 (Cont.)
   Gtr. 1
 |---------------------------------------------------------------------||
 |---------------------------------------------------------------------||
 |---------------------------------------------------------------------||
 |-----------------------------------------------------------------6-5-||
 |-444433334433----444433666644----666655556655----66665577775~5-4-4-3-||
 |-------------2222------------3333------------4444------------3-2-----||
 |                                                                     ||
 | Gtr. 2                                                              ||
 |---------------------------------------------------------------------||
 |---------------------------------------------------------------------||
 |-666655556655----666655888866----------------------------------------||
 |-------------4444------------5555--------------------------------6-5-||
 |---------------------------------666655556655----66665577775~5-4-4-3-||
 |---------------------------------------------4444------------3-2-----||




 Riff 12 (2:06)
   Gtr. 1&2
||--------------|-----------------------------------------------------|
||--------------|-----------------------------------------------------|
||---------7777-|-----------------------------------------------------|
||--------------|-----------------------------------------------------|
||-2---2233-----|------2222--------2222333366663333----5p3h53h5p35566-|
||--333---------|--0000----33334444----------------4444---------------|
                                                       |___||___|
 Riff 12 (Cont.)
   Gtr. 1&2
 |------------------------------------------------------------------|
 |------------------------------------------------------------------|
 |------------------------------------------------------------------|
 |-55554444----4444-------------------------------------------------|
 |---------6666--------2222--------2222333366663333----88------77---|
 |-----------------0000----33334444----------------5555--554444--44-|

 Riff 12
   Gtr. 1&2
 |------------------||
 |------------------||
 |------------------||
 |------------------||
 |-----4444---------||
 |-2222----55554444-||




 Riff 13 (2:16)
   Gtr. 1&2
|------------------------------------------------------------------------------|
|------------------------------------------------------------------------------|
|------------------------------------------------------------------------------|
|---------------------------------------------55554444----5555-----------------|
|-----22------2222333366663333----333355556666--------6666--------2222---------|
|-0000--334444----------------4444----------------------------0000----33334444-|

 Riff 13 (Cont.)
   Gtr. 1&2
 |---------------------------------------------------------------------------|
 |---------------------------------------------------------------------------|
 |------------------------<Gtr.2-Only>---------------------------------------|
 |-4~------------------------------------------------------------------------|
 |-2~2-2--------------2-2-------------------2222--------2222333366663333-----|
 |---0-0-111122223333-0-0-111122223333--0000----33334444----------------4444-|
 Riff 13 (Cont.)
   Gtr. 1&2
 |-------------------------------------------------------------------------||
 |-------------------------------------------------------------------------||
 |-------------------------------------------------------------------------||
 |--------55554444----4444-------------------------------------------------||
 |-3h5p3h5--------6666--------2222--------2222333366663333----3333---------||
 |------------------------0000----33334444----------------2222----44443333-||




 Riff 14
   Gtr. 1&2                                                            3x
||---|---------------------------------------------------------------------|
||---|.-------------------------------------------------------------------.|
||---|---------------------------------------------------------------------|
||-6-|.-------------------------------------------------------------------.|
||-4-|---------------------------------------------------------------------|
||---|-0-0-111122223333-0-0-222233334444-0-0-111122223333-0-0-222233334444-|

 Riff 14 (Cont.)
   Gtr. 1&2
 |--------||
 |--------||
 |--------||
 |--------||
 |------3-||
 |-0000-1-||




 Riff 15 (2:42)
   Gtr. 1&2
||------------------------------------------------------------------|
||------------------------------------------------------------------|
||------------------------------------------------------------------|
||-------------------------------------------------55554444----4444-|
||-----2222--------2222333366663333----333355556666--------6666-----|
||-0000----33334444----------------4444-----------------------------|

 Riff 15 (Cont.)
   Gtr. 1&2
 |------------------------------------------------------------------||
 |------------------------------------------------------------------||
 |------------------------------------------------------------------||
 |------------------------------------------------------------------||
 |-----2222--------2222333366663333----3333------------4444---------||
 |-0000----33334444----------------1111----444433332222----55554444-||




 Riff 16 (2:51)
   Gtr. 1&2                                                      2x
||------------------------------------------------------------------||
||-----------------------------------------------------------------.||
||------------------------------------------------------------------||
||-----------------------------------------------------------------.||
||-----3333------------4444------------3333------------4444---------||
||-1111----444433332222----555544441111----444433332222----55554444-||
 Riff 17 (3:00)
   Gtr. 1&2
||--------------------------------------------------------------------------|
||--------------------------------------------------------------------------|
||--------------------------------------------------------------------------|
||-----5-------------6---------------------------6-------------5------------|
||-3---3---6--5--4~--4---7--6--3-------6--5--4~--4---7--6--3---3---6--5--4~-|
||-1-------4--3--2~------5--4--1-------4--3--2~------5--4--1-------4--3--2~-|

 Riff 17 (Cont.)
   Gtr. 1&2
 |--------------------------------------------------------||
 |--------------------------------------------------------||
 |--------------------------------------------------------||
 |-6-------------5----------------------------------------||
 |-4---7--6--3---3------2-2--------------2-2----------6---||
 |-----5--4--1----------0-0-111122223333-0-0-22223333-4---||




 Riff 18 (3:10)
   Gtr. 1&2                                                         4x
||---------------------------------------------------------------------||
||.-------------------------------------End-Here-Fourth-Time->>>-*----.||
||---------------------------------------------------------------------||
||.-------------------------------------------------------------------.||
||---------------------------------------------------------------------||
||-111122223333-0-0-222233334444-0-0-111122223333-0-0-222233334444-0-0-||




 Riff 19 (3:18)
   Gtr. 1&2
||----------------------------------||
||----------------------------------||
||----------------------------------||
||----------------------------------||
||-32-32-22222-222--32-32-22222-222-||
||-10-10-00000-000--10-10-00000-000-||




 Riff 20 (3:21)
   Gtr. 1                                                            2x
||---------------------------------------------------------------------||
||--------------------------------------------------------------------.||
||---------------------------------------------------------------------||
||--------------------------------------------------------------------.||
||-32-32-22222-222--32-32-22222-222--32-32-22222-222--32-32-22222-222--||
||-10-10-00000-000--10-10-00000-000--10-10-00000-000--10-10-00000-000--||
||                                                                      ||
|| Gtr. 2                                                               ||
||---------------------------------------------------------------------||
||--------------------------------------------------------------------.||
||---------------------------------------------------------------------||
||--------------------------------------------------------------------.||
||-32-32-22443-220--32-32-22443-220--32-32-22443-220--32-32-22443-220--||
||-10-10-00221------10-10-00221------10-10-00221------10-10-00221------||
 Riff 21 (3:32)
   Gtr. 1&2                         2x
||------------------------------------||
||-----------------------------------.||
||------------------------------------||
||-----1122-----22-------------------.||
||------------22--22-32-32-22222-222--||
||-4444-----11-------10-10-00000-000--||




 Riff 22 (3:38)
   Gtr. 1                                                            2x
||---------------------------------------------------------------------||
||--------------------------------------------------------------------.||
||---------------------------------------------------------------------||
||--------------------------------------------------------------------.||
||-32-32-22222-222--32-32-22222-222--32-32-22222-222--32-32-22222-222--||
||-10-10-00000-000--10-10-00000-000--10-10-00000-000--10-10-00000-000--||
||                                                                      ||
|| Gtr. 2                                                               ||
||---------------------------------------------------------------------||
||--------------------------------------------------------------------.||
||---------------------------------------------------------------------||
||---------6---8\7----------6---8\7----------6---8\7----------6---8\7-.||
||-2-8/9-5-4-6-6\5--2-8/9-5-4-6-6\5--2-8/9-5-4-6-6\5--2-8/9-5-4-6-6\5--||
||-0-6/7-3---4------0-6/7-3---4------0-6/7-3---4------0-6/7-3---4------||




 Riff 23 (3:51)
   Gtr. 1
||-----------------------------------------------------------------------||
||-----------------------------------------------------------------------||
||---------------------------------------------------------------------1-||
||---------------------------------------------------------------------2-||
||-32-32-22222-222--32-32-22222-222--32-32-22222-222--32-32-22222-222----||
||-10-10-00000-000--10-10-00000-000--10-10-00000-000--10-10-00000-000----||
||                                                                       ||
|| Gtr. 2                                                                ||
||-----------------------------------------------------------------------||
||-----------------------------------------------------------------------||
||-----------------------------------------------------------------------||
||-----------------------------------------------------------------------||
||-32-32------------32-32------------32-32-22443-220--32-32-22443-220--2-||
||-10-10------------10-10------------10-10-00221------10-10-00221------0-||


End.
comments
We did not receive enough feedback on this tab! Please rate:
print report bad tab
1 2 3 4 5
I want to post or [tab]
guest
You may want to rate the tab now too:
select rating
Please do not post tabs as comments. Select "correction" instead!