Oops, an error
Loading. Please wait.

Endless Cemetary Tab

ver1
ver1

Whole song

Interactive

More versions @911Tabs.com
75 views 1 this week
no commentswrite comment
1 2 3 4 5
please rate
add to favorites launch autoscroll
font size
0
reset
Autoscroll
+/-
esc
set tempo
stop
Contributor
WARNING: You are trying to view
                                    content from Ultimate-Guitar.com
                                    in an unauthorized application,
                                    which is prohibited.

                                    Please use an official Ultimate
                                    Guitar Tabs application for iPhone,
                                    iPad or Android to access legitimate
                                    chords, guitar, bass, and drum tabs
                                    from Ultimate-Guitar.com database.

                                    Type "ultimate guitar tabs" in Apple
                                    App Store's or Android Market's
                                    search to find the application.
Tuning: B E A D F# B
TAB LEGEND:
Suffixes for bend:
fb - full bend        hb - half bend
qb - quarter bend     t - tap bend
r - release bend

Suffixes for harmonic:
^ - pinched harmonic      n – natural harmonic

Suffixes for mute:
. – palm mute            x – staccato mute
, - light palm mute      ; - heavy palm mute

Other:
/ - slide up to            \ - slide down to
h - hammer on              p - pull off
" - tremolo note           <> - Trill
* - see comment

No clean intro for the moment. Sorry cunts.

Riff 1 (0:06)
              [x1]                         [x19]
|-----------------|-----------------------------|
|-----------------|-----------------------------|
|-----------------|-----------------------------|
|-4-------3-------|-----------------------------|
|-5-------4-------|-2-2-5--5-3-2--2-2-6--6-5-2--|
|-7-------6-------|-0-0-3--3-1-0--0-0-4--4-3-0--|
                    . . . . . . . . . . . .

Riff 2 (0:41)
                 [x1]                 [x2]               [x1]
|-------------------|--------------------|------------------|
|-------------------|--------------------|------------------|
|-------------------|--------------------|------------------|
|-----88---889988---|-----------889988---|------------------| gtr 1
|-6-9----9--------9-|-6-9-11-12--------9-|-6--6--6-6-6---6--|
|-4-7----7--------7-|-4-7-9--10--------7-|-4--4--4-4-4---4--|
                                           . . . . .     .
                 [x1]                 [x2]               [x1]
|-------------------|--------------------|------------------|
|-------------------|--------------------|------------------|
|-------------------|--------------------|------------------|
|-----88---889988---|-----------889988---|------------------| gtr 2
|-6-9----9--------9-|-6-9-11-12--------9-|-6--6--6-6-6-6-6--|
|-4-7----7--------7-|-4-7-9--10--------7-|-4--4--4-4-4-4-4--|
                                           . . . . . . .
                             [x4]
--------------------------------|
--------------------------------|
--------------------------------|
-----88--889988------88--889988-| both gtrs
--------------------------------|
-4477--77------774477--88-------|
Riff 3 (1:02) play 4 times
|--------------------------------------------------------------------|
|--------------------------------------------------------------------|
|--------------------------------------------------------------------|
|---------3-3-3---2---1-----------3-3-3---2---1---------------3------|
|-2-4-2-4-1-1-1---2---1---2-4-2-4-1-1-1---2---1---------------1------|
|-0-2-0-2-----------------0-2-0-2---------------------222-000----222-|
  . . . .                  . . . .                    ... ...

--------------|
--------------|
--------------|
-----3--3/4---|
-----1--1/2---|
-000----------|
 ...       x

Riff 4 (1:11) play twice
                                                            [x2]
|---------------------------------------------------------------|
|---------------------------------------------------------------|
|---------------------------------------------------------------|
|---------------------------------------------------------------|
|-2-2-2-2-4-4-4-4/8-8\4-4-4-4-4-4/8-8\4-4-4-4-4-4/8-8\4-4-4-4-4-|
|-0-0-0-0-2-2-2-2/6-6\2-2-2-2-2-2/6-6\2-2-2-2-2-2/6-6\2-2-2-2-2-|
                                                       [x1]
----------------------------------------------------------|
----------------------------------------------------------|
----------------------------------------------------------|
----------------------------------------------------------|
-2-2-2-2-4-4-4-4/8-8\4-4-4-4-4-4/8-8\4-4-4-4-4-4/8-8\3-3--|
-0-0-0-0-2-2-2-2/6-6\2-2-2-2-2-2/6-6\2-2-2-2-2-2/6-6\1-1--|

Bridge (1:25) [*] --> Bend down with whammy 2 whole steps.
|-------------------------------------|------------------------|
|-------------------------------------|------------------------|
|---------10--------------------------|------------------------|
|------------9\--12-000000-12-0000-11-|---------------9p7------| gtr 1
|-8p7p5-7-----------------------------|-------------------10p9-|
|-------------------------------------|------------------------|
        .
|-------------------------------------|------------------------|
|-------------------------------------|------------------------|
|---------10--------------------------|------------------------|
|------------9\--12-000000-12-0000-11-|-7p5--------------------| gtr 2
|-8p7p5-7-----------------------------|-----8p7\1--------------|
|-------------------------------------|-----------4-2-1--------|
        .                                             *

----------------------------------------------------------------|
----------------------------------------------------------------|
----------------------------------------------------------------|
--3--3-----12-000000-12-0000-11-000-14-000-6--------------------| both
-\1--1---2---------------------------------6-----6-6-6-6--6-6-6-| gtrs
-------0-0---------------------------------4-----4-4-4-4--4-4-4-|
       .                                         . . . .x . . .

--------------------------------------------------------------------|
--------------------------------------------------------------------|
----------------------9---------------------------------------------|
----------------------9---------------------------------------------|
-6--6-7-6-8-6-8-9-8-9----6-6-6-6-6-6---8-8-8--5-5-5--3-3-3-3-3-3--6-|
-4--4-3-4-6-4-6-7-6-7----4-4-4-4-4-4---6-6-6--3-3-3--1-1-1-1-1-1--4-|
 .x . . . . . . . . .    . . . . . .   . . . . . . . . . . . . .

---------------------|
---------------------|
---------------------|
---------------------| gtr 1
-6-6-6-6-6--5-5-5----|
-4-4-4-4-4--3-3-3----|
 . . . . . . . .
---------------------|
---------------------|
---------------------|
------------------8~-| gtr 2
-6-6-6-6-6--5-5-5----|
-4-4-4-4-4--3-3-3----|
 . . . . . . . .

Riff 5 (1:39)
                                                            [x2]
|---------------------------------------------------------------|
|---------------------------------------------------------------|
|---------------------------------------------------------------|
|---------------------------------------------------------------|
|-2-2-2-2-4-4-4-4/8-8\4-4-4-4-4-4/8-8\4-4-4-4-4-4/8-8\4-4-4-4-4-|
|-0-0-0-0-2-2-2-2/6-6\2-2-2-2-2-2/6-6\2-2-2-2-2-2/6-6\2-2-2-2-2-|
                                                          [x1]
--------------------------------------------------------------|
--------------------------------------------------------------|
--------------------------------------------------------------|
--------------------------------------------------------------|
---------3---2-----------2-------------3---2---5---3---2------|
-0-0-1-0---0---0-3-0-2-0---0-3-0-0-1-0---0---0---0---0---0-3--|
 . .   .   .   .   .   .   .   . .   .   .   .   .   .   .

-------------------------------------------------------------|
-------------------------------------------------------------|
---------10--------------------------------------------------|
------------9\--17-000-15-000-14-000-5-000-3-000000-2-000000-|
-8p7p5-7-----------------------------------------------------|
-------------------------------------------------------------|
       .

Riff 6 (1:51) play 3 times
|-------------------------------------------------------------|
|--------------------------------------------10"--------------|
|-10"-----------9"-----12"----10"-------------------12"----9"-|
|-------------------------------------------------------------| gtr 1
|-------------------------------------------------------------|
|-------------------------------------------------------------|

|-------------------------------------------------------------|
|-------------------------------------------------------------|
|-------------------------------------------------------------|
|-12-0000000000-11-000-14-000-12-00000000000-15-000-14-000-10-| gtr 2
|-------------------------------------------------------------|
|-------------------------------------------------------------|


---------------------------------------------------------------------|
---------------------------------------------------------------------|
-(9")------10"-------------------------------------------------------|
---------------12"--11"-------10"------------9"-----12"----10"-------|
---------------------------------------------------------------------|
---------------------------------------------------------------------|

----------------------------------------------------------------------|
----------------------------------------------------------------------|
----------------------------------------------------------------------|
-000-11-00000000000-7-0000000-12-00000000000-11-000-14-000-12-000000--|
----------------------------------------------------------------------|
----------------------------------------------------------------------|
----------------------------------------------------------------------|
-------11"----10"-----------------------------------------------------|
---------------------12"----------------------------------------------|
-(10")--------------------------------------11"-----------------------|
----------------------------10"---12"---------------------------------|
----------------------------------------------------------------------|

------------------------------------------------------|
------------------------------------------------------|
------------------------------------------------------|
-00000-17-000-15-000-14-000-5-000-3-0000000-2-0000000-|
------------------------------------------------------|
------------------------------------------------------|


Riff 7 (2:19)
                                                                [x1]
|-------------------------------------------------------------------|
|-------------------------------------------------------------------|
|-----------------------6666----4444------------------6p4p3----4444-|
|-------9p8p6-11p9p8-----------------------7p6p4--------------------|
|-6--6---------------8-------5-------3--3--------6--6-------5-------|
|-4--4---------------6-------3-------1--1--------4--4-------3-------|

                                                                 [x2]
--------------------------------------------------------------------|
--------------------------------------------------------------------|
------------------------6666----4444------------------6p4p3----4444-|
--------9p8p6-11p9p8-----------------------7p6p4--------------------|
--5--6---------------8-------5-------3--3--------6--6-------5-------|
--3--4---------------6-------3-------1--1--------4--4-------3-------|

                                                                 [x1]
--------------------------------------------------------------------|
--------------------------------------------------------------------|
-----------------------6666----4444------------------6p4p3----4p3p1-|
-------9p8p6-11p9p8-----------------------7p6p4---------------------|
-5--6---------------8-------5-------2--2--------6--6-------5--------|
-3--4---------------6-------3-------0--0--------4--4-------3--------|

Riff 6 x 1/3 (2:38)

Riff 8 (2:47)
                         [x1]                        [x2]
|---------------------------|---------------------------|------------|
|---------------------------|---------------------------|------------|
|---------------------------|---------------------------|------------|
|---------------------------|---------------------------|------------|
|-6-6---8--5--3-3---6-6---5-|-5-6---8--5--3-3---6-6---5-|-5-6---8--5-|
|-4-4---6--3--1-1---4-4---3-|-3-4---6--3--1-1---4-4---3-|-3-4---6--3-|
  . .x . . . .x . .x .        . .x . . . .x . .       .   . .x . .

------------------|
------------------|
------------------|
------------------|
--3-3---6-6---5fb-|
--1-1---4-4---3fb-|
  . .x . .x
Riff 9 (3:05)
|--------------------------------------------------------------------|
|--------------------------------------------------------------------|
|-----7---7---6/9----7---7---------10-9-7-----------7---7---6/9----7-|
|-----7---7---5/8----7---7---------8--7-7---7-------7---7---5/8----7-|
|-8-8-8-8-8-7-7/10-8-8-8-8---8887778--7-----7---8-8-8-8-8-7-7/10-8-8-|
|-----------------------------------------0--------------------------|
   . .  .   .      .   .                  .     . .   .   .      .
---------------------------|
---------------------------|
---7---------7-9---9-------|
---7---8-7-5-5-7---7---10--|
-8-8---8-7-5-5-7---7-0-8---|
---------------------------|
 .                   .


Guitar stops (3:14)


Guitar solo starts at (3:16)


Solo rhythm (3:16) play 4 times
|------------------------------------------------------------------|
|------------------------------------------------------------------|
|------------------------------------------------------------------|
|---7---8-7-5-7-5-----10---10-------------10-8----------12-11-12---|
|-5---8-----------8-7----7----8-7-8---7-8--------7-10-8----------7-|
|-----------------------------------6----------8-------------------|

---------|
---------|
---------|
-12-11-*-| <--- * = don’t play note on fourth time
-------4-|
---------|


Riff 10 (3:45)
                               [x1]
|---------------------------------|-------5------------------------|
|-6-------5---------------11--10--|-----6---6-----5----------------|
|-x-----------------------10--9---|--------------------------------|
|-7---------7---7-5---7---8---7---|---7-------7-----7---7-5---7----|
|-5-----5-----5---8---10----------|-5-----------5-----5---8---10---|
|-----------------6---8-----------|-----------------------6---8----|
        [x3]
-----------|
-11---10---|
-10---9----|
-8----7----|
-----------|
-----------|
Solo II (4:14)
|----13----15-15p13p12-13-12-------17----17--------------------|
|-------15-------------------15-13----13----15-13-15-----------|
|-14----------------------------------------------------14-15--|
|----------------------------------------------------12--------| gtr 1
|--------------------------------------------------------------|
|--------------------------------------------------------------|

|--------------------------------------------------------------|
|--------------------------------------------------------------|
|----14----15-15p14p12-14-12-------17----17--------------------|
|-12----15-------------------15-14----14----15-14-15----14-15--| gtr 2
|----------------------------------------------------13--------|
|--------------------------------------------------------------|

-12----------------18-17-18----18-17------------------------|
----15-13----13-15----------14------------------------------|
----------15-------------------------14-15~~~~~-------------|
------------------------------------------------------------|
------------------------------------------------------------|
------------------------------------------------------------|

------------------------------------------------------------|
------------------------------------------------------------|
-17-15-------------19-18-19----19-18------------------------|
----------14-17-15----------14------------------------------|
-------15----------------------------16-17~~~~~-------------|
------------------------------------------------------------|



Riff 11 (4:25)
|----------------------------------------------------------|
|----------------------------------------------------------|
|----------------------------------------------------------|
|----------------------------------------------------------|
|-6-6-6--6-6-6--6-6-6--6-6-6--6-6-6--6-6-6--6-6-6--6-6-6\--|
|-4-4-4--4-4-4--4-4-4--4-4-4--4-4-4--4-4-4--4-4-4--4-4-4\--|
  . . . . . . . . . . . . . . . . . . . . .

Riff 12 (4:28)
                           [x4]
|-----------------------------|-------------------------------------|
|-----------------------------|-------------------------------------|
|-----------------------------|-------------------------------------|
|-----------------------------|-2---2-2-6-6-5-2-2-2-5-5-3-3-2-2-2-6-|
|-2-2-5--5-3-2--2-2-6--6-5-2--|-2---2-2-6-6-5-2-2-2-5-5-3-3-2-2-2-6-|
|-0-0-3--3-1-0--0-0-4--4-3-0--|-------------------------------------|
  . . . . . . . . . . . .       .   . . . . . . . . . . . . . . . .
                                     [x6]
-----------|----------------------------|
-----------|----------------------------|
-----------|----------------------------|
-5-2-2-2-5-|----------------------------|
-5-2-2-2-5-|-2-2-5--5-3-2--2-2-6--6-5-2-|
-----------|-0-0-3--3-1-0--0-0-4--4-3-0-|
 . . . . .   . . . . . . . . . . . .

Riff 13 (4:48)
|------------------------------------------------|
|------------------------------------------------|
|------------------------------------------------|
|------------------------------------------------| gtr 1
|-6------9--------9-6------10--------9-----------|
|-4------7--------7-4------8---------7-----------|

|------------------------------------------------|
|------------------------------------------------|
|------------------------------------------------|
|-----88---889988-------------889988----------6--| gtr 2
|-6-9----9--------9-6-9-11-10--------9--6/11--6--|
|-4-7----7--------7-4-7-9--8---------7--4/9------|
(both guitars)
---------------9------------------------------9-------------------|
---------------9------------------------------9-------------------|
---------------9------------------------------9-------------------|
---------------9------------------------------9-------------------|
-6---6-6-6/9\6------6-6-6-6-6-6-6-6/9-9-9-9------6--6-6-6-6/9-9-9-|
-4---4-4-4/7\4----0-4-4-4-4-4-4-4-4/7-7-7-7-0----4--4-4-4-4/7-7-7-|
     . . . . . n . . . . . . . . . . . . . . n . . . . . . . .



(both guitars)
--------------9--------------------------------9-------------------|
--------------9--------------------------------9-------------------|
--------------9--------------------------------9-------------------|
--------------9--------------------------------9-------------------|
-9\-6-6-6-6--------6-6-6-6-6-6-6-6/9-9-9-9\6-6----2-2-2-2-4-4-4-4/-|
-7\-4-4-4-4-0----0-4-4-4-4-4-4-4-4/7-7-7-7\4-4----0-0-0-0-2-2-2-2/-|
 . . . . . . n . . . . . . . . . . . . . . . n

                             [x3]                              [x1]
---------------------------------|---------------------------------|
---------------------------------|---------------------------------|
---------------------------------|---------------------------------| both
---------------------------------|-------------------------------6-| gtrs
-2-2-2-2-4-4-4-4/8-8\4-4-4-4-4-4-|-2-2-2-2-4-4-4-4/8-8\3--3--6/9-6-|
-0-0-0-0-2-2-2-2/6-6\2-2-2-2-2-2-|-0-0-0-0-2-2-2-2/6-6\1--1--4/7---|



(both guitars)
---------------9------------------------------9-------------------|
---------------9------------------------------9-------------------|
---------------9------------------------------9-------------------|
---------------9------------------------------9-------------------|
-6---6-6-6/9\6------6-6-6-6-6-6-6-6/9-9-9-9------6--6-6-6-6/9-9-9-|
-4---4-4-4/7\4----0-4-4-4-4-4-4-4-4/7-7-7-7-0----4--4-4-4-4/7-7-7-|
     . . . . . n . . . . . . . . . . . . . . n . . . . . . . .


(both guitars)
--------------9--------------------------------9-------------------|
--------------9--------------------------------9-------------------|
--------------9--------------------------------9-------------------|
--------------9--------------------------------9-------------------|
-9\-6-6-6-6--------6-6-6-6-6-6-6-6/9-9-9-9\6-6----2-2-2-2-4-4-4-4/-|
-7\-4-4-4-4-0----0-4-4-4-4-4-4-4-4/7-7-7-7\4-4----0-0-0-0-2-2-2-2/-|
 . . . . . . n . . . . . . . . . . . . . . . n


                             [1x]                     [1x]
---------------------------------|-----------------------|
---------------------------------|-----------------------|
---------------------------------|-----------------------| both
---------------------------------|-----------------------| gtrs
-2-2-2-2-4-4-4-4/8-8\4-4-4-4-4-4-|-2-2-2-2-4-4-4-4/8-8\3-|
-0-0-0-0-2-2-2-2/6-6\2-2-2-2-2-2-|-0-0-0-0-2-2-2-2/6-6\1-|
End (5:11)
|---------------------------------------------------|
|--------------------------------------10"----------|
|-10"----------9"---12"--10"----------------12"--9--|
|---------------------------------------------------| gtr 1
|---------------------------------------------------|
|---------------------------------------------------|

|---------------------------------------------------|
|---------------------------------------------------|
|---------------------------------------------------|
|-1200000000000110001400012000120000000150001400011- gtr 2
|---------------------------------------------------|
|---------------------------------------------------|

--------------------------------|
--------------------------------|
--------------------------------|
---------------------------7----| gtr 1
---------------------------5----|
--------------------------------|

-----------13h17p13-------------|
---------15--------15-----------|
-------14------------14---------|
-----15----------------15-------| gtr 2
---17--------------------17-----|
-17------------------------17---|

End.
comments
We did not receive enough feedback on this tab! Please rate:
print report bad tab
1 2 3 4 5
I want to post or [tab]
guest
You may want to rate the tab now too:
select rating
Please do not post tabs as comments. Select "correction" instead!