Oops, an error
Loading. Please wait.

Faceless Unknown Tab

34 views 1 this week
no commentswrite comment
1 2 3 4 5
please rate
Autoscroll
+/-
esc
set tempo
stop
Contributor
WARNING: You are trying to view
                                    content from Ultimate-Guitar.com
                                    in an unauthorized application,
                                    which is prohibited.

                                    Please use an official Ultimate
                                    Guitar Tabs application for iPhone,
                                    iPad or Android to access legitimate
                                    chords, guitar, bass, and drum tabs
                                    from Ultimate-Guitar.com database.

                                    Type "ultimate guitar tabs" in Apple
                                    App Store's or Android Market's
                                    search to find the application.

guitar two
|-RIFF-1-----------------------|
|------------------------------|
|-----1122----2211-—112244---|
|------------------------------|
|-0000----2222----33-----------|
|------------------------------|
guitar one
|--------------------------|
|--------------------------|
|--------------------------|
|--------------------------|
|-----6-7-----7-6---6-7-9--|
|-----4-5-----5-4---4-5-7--|
      . .     . .   . . .
both guitars 3 times (0:12)
|-RIFF-2---------------------------------------------------|
|----------------------------------------------------------|
|--7--6------------------8-----7---------------------------|
|-11--7-----------------12-----9---------------------------|
|-----------7----10---------------7--7--7—-7—-12-------|
|--------0--0--0--8--0------0-----0--0--0--0--10--0--------|
         .     .     .      .     . . . .         .
both guitars fourth time
|-RIFF-2-------------------------------|
|--------------------------------------|
|--7--6------------------8-----7-/-14--|
|-11--7-----------------12-----9-/-16--|
|-----------7----10--------------------|
|--------0--0--0--8--0------0----------|
         .     .     .      .
both guitars only first time (0:22)
|-RIFF-3------------------------------------------------------|
|-------------------------------------------------------------|
|---------------7-\-6-------------7-----6------------8--------|
|--------------11---7h-----------11-----8-----------12--------|
|-------12----------------12-----------------10---------------|
|-0--0--10--0----------0--10--0------0-----0—-8—-0--------|
  . .       .          .       .     .     .     .
both guitars next three times
|-RIFF-3------------------------------------------------------|
|-------------------------------------------------------------|
|---------------7-\-6-------------7-----6------------8--------|
|--------------11---7h-----------11-----8-----------12--------|
|-----9/12----------------12-----------------10---------------|
|--0--7/10--0----------0--10--0------0-----0—-8—-0--------|
   .        .          .       .     .     .     .
both guitars only first time (0:32)
|-RIFF-4--------------------------------------------------|
|---------------------------------------------------------|
|---------------7-\-6------------------8-----7------------|
|--------------11---7h----------------12-----9------------|
|-----9/12----------------7----10---------------7--7------|
|--0—-7/10--0----------0--0--0--8--0------0-----0--0----|
   .        .          .     .     .      .     . .
both guitars next three times
|-RIFF-4--------------------------------------------------|
|---------------------------------------------------------|
|---------------7-\-6------------------8-----7------------|
|--------------11---7h----------------12-----9------------|
|-7--7--12----------------7----10---------------7--7------|
|-0—-0--10--0----------0--0--0--8--0------0-----0--0----|
  . .       .          .     .     .      .     . .
both guitars 8 times (0:42)
|-RIFF-5-----------|
|------------------|
|------------------|
|------------------|
|-22------44-------|
|---442211--113344-|
both guitars 3 times (0:53)
|-RIFF-6-----------------------|
|------------------------------|
|------------------------------|
|---------7/8\7/8\7/8----------|
|-7-/-8---5/6\5/6\5/6-5-/-11---|
|-5-/-6----------------------0-|
both guitars fourth time
|-RIFF-6---------------|
|----------------------|
|----------------------|
|---------7/8\7\6------|
|-7-/-8---5/6\5\4------|
|-5-/-6-----------7\---|

both guitars 5 times (0:59)
|-RIFF-7----------|
|-----------------|
|-----------------|
|-4-------6-------|
|-2-6-4-3-4-3-5-6-|
|---4-2-1---1-3-4-|
both guitars 2 times
|-RIFF-5-----------|
|------------------|
|------------------|
|------------------|
|-22------44-------|
|---442211--113344-|

both guitars only first time (1:09)
|-RIFF-3------------------------------------------------------|
|-------------------------------------------------------------|
|---------------7-\-6-------------7-----6------------8--------|
|--------------11---7h-----------11-----8-----------12--------|
|-------12----------------12-----------------10---------------|
|-0--0--10--0----------0--10--0------0-----0—-8—-0--------|
  . .       .          .      .      .     .     .
both guitars next two times
|-RIFF-3------------------------------------------------------|
|-------------------------------------------------------------|
|---------------7-\-6-------------7-----6------------8--------|
|--------------11---7h-----------11-----8-----------12--------|
|-----9/12----------------12-----------------10---------------|
|--0--7/10--0----------0--10--0------0-----0—-8—-0--------|
   .        .          .      .      .     .     .
both guitars fourth time
|-RIFF-3------------------------------------------------------|
|-------------------------------------------------------------|
|---------------7-\-6-------------7-----6------------7--------|
|--------------11---7h-----------11-----8-----------11--------|
|-----9/12----------------12-----------------10---------------|
|--0--7/10--0----------0--10--0------0-----0—-8—-0--------|
   .        .          .      .      .     .     .
both guitars 3 times (1:20)
|-RIFF-8--------------------|
|---------------------------|
|---------------------------|
|----------------8-\-5-/-6--|
|-7--8--9--9--9--8-\-5-/-6--|
|-5--6--7--7--7-------------|
  . . . . .
both guitars fourth time
|-RIFF-8----------------|
|-----------------------|
|-----------------------|
|----------------8-\-5--|
|-7--8--9--9--9--8-\-5--|
|-5--6--7--7--7---------|
  . . . . .
both guitars (1:25)
|-RIFF-9A-----------------------------------------------|
|------------------1111h2-------------------------------|
|------------1111--------1111---------------------------|
|----3--/4-------22-------------------------7---4-------|
|-4--1—-/2----------------------3--6—-7\5---5---2---|
|-2---------------------------001—-4-—5\3-----------|

 -------------------------------------------------------|
 ------------------1111h2-------------------------------|
 ------------1111--------1111---------------------------|
 ----3--/4-------22-------------------------7---4-------|
 -4--1—-/2----------------------3--6—-7\5---5---2---|
 -2---------------------------001—-4-—5\3-----------|

 ----------------------------------|
 ------------------1111h2----------|
 ------------1111--------1111------|
 ----3--/4-------22----------------|
 -4--1—-/2-----------------------|
 -2--------------------------------|

both guitars 4 times (1:32)
|-RIFF-8--------------------|
|---------------------------|
|---------------------------|
|----------------8-\-5-/-6--|
|-7--8--9--9--9--8-\-5-/-6--|
|-5--6--7--7--7-------------|
  . . . . .
both guitars 4 times (1:37)
|-RIFF-10--------------------|
|----------------------------|
|----------------------------|
|------------------3-5--555--|
|-222222-3-3-3-4-4-1-3-------|
|-000000-1-1-1-2-2-----------|
               . . . .

guitar one (1:44)
|RIFF-11-----------------ph---------------------------ph--------------ph-----------|
|----------------------------------------------------------------------------------|
|------------------------6bf--------------------------6bf-------------6bf----------|
|2-2-2-2-2-2------------------2-2-2-2-2-2------------------------------------------|
|2-2-2-2-2-2------------------2-2-2-2-2-2------------------------------------------|
|0-0-0-0-0-0--6--666--8-------0-0-0-0-0-0--6—-666—-8-------6—-666—-8-------|
              . ... .                      . ... .         . ... .
------------------------ph----------------|
------------------------------------------|
------------------------6bf---------------|
2-2-2-2-2-2------------------2-2-2-2-2-2--|
2-2-2-2-2-2------------------2-2-2-2-2-2--|
0-0-0-0-0-0--6--666--8-------0-0-0-0-0-0--|

------------ph--------------ph------------|
------------------------------------------|
------------6bf-------------4bh-----------|
------------------------------------------|
------------------------------------------|
-6—-666—-8-------6—-666—-8--------|
 . ... .         . ... .

guitar two (1:44)
|RIFF-11-----------------ph---------------------------ph--------------ph-----------|
|----------------------------------------------------------------------------------|
|------------------------8bh--------------------------8bh-------------8bh----------|
|2-2-2-2-2-2------------------2-2-2-2-2-2------------------------------------------|
|2-2-2-2-2-2------------------2-2-2-2-2-2------------------------------------------|
|0-0-0-0-0-0--6--666--8-------0-0-0-0-0-0--6—-666—-8-------6—-666—-8-------|
              . ... .                      . ... .         . ... .
------------------------ph----------------|
------------------------------------------|
------------------------8bh---------------|
2-2-2-2-2-2------------------2-2-2-2-2-2--|
2-2-2-2-2-2------------------2-2-2-2-2-2--|
0-0-0-0-0-0--6--666--8-------0-0-0-0-0-0--|
             . ... .

------------ph--------------ph------------|
------------------------------------------|
------------8bh---------------------------|
----------------------------5bh-----------|
------------------------------------------|
-6—-666—-8-------6—-666—-8--------|
 . ... .         . ... .


both guitars 2 times (1:53)
|-RIFF-8--------------------|
|---------------------------|
|---------------------------|
|----------------8-\-5-/-6--|
|-7--8--9--9--9--8-\-5-/-6--|
|-5--6--7--7--7-------------|
  . . . . .
both guitars third time
|-RIFF-8----------------|
|-----------------------|
|-----------------------|
|----------------8-\-5--|
|-7--8--9--9--9--8-\-5--|
|-5--6--7--7--7---------|
  . . . . .
both guitars 3 times (1:25)
|-RIFF-9B---------------------------------------------|
|---------------111111--------------------------------|
|---------1111--------1111----------------------------|
|----3--------22-------------------------7---4--------|
|-4--1—----------------------3--6--7\5---5---2------|
|-2------------------------001—-4-—5\3------------|

both guitars fourth time
|-RIFF-9B---------------------------------------------|stop--------|
|---------------111111--------------------------------|------------|
|---------1111--------1111----------------------------|------------|
|----3--------22-------------------------7---4------3-|------------|
|-4--1—----------------------3--6—-7\5---5---2---4--1-|--------|
|-2------------------------001—-4-—5\3-----------2—---|------|

both guitars (2:08)
|-Break-(RIFF-1)---------------------------|
|------------------------------------------|
|------------------------------------------|
|-------------------------666677776666-----|
|-555577778888888888888888------------8888-|
|------------------------------------------|

both guitars 1 time / second time only guitar two
|-RIFF-1------------------------------------------------------------|
|-------------------------------------------------------------------|
|-----1122----2211--112244------------------------------------------|
|-------------------------------------------------666677776666------|
|-0000----2222----33------555577778888888888888888------------88888-|
|-------------------------------------------------------------------|
second time guitar one
|RIFF-1B-----------------------------------------------------------------|
|------------------------------------------------------------------------|
|----1122----2211--112244------------------------------------------------|
|------------------------77779999101010107777--------99991010101099997777|
|0000----2222----33--------------------------88888888--------------------|
|------------------------------------------------------------------------|
third time guitar one (2:20)
|-RIFF-1------------------------------------------------|
|-------------------------------------------------------|
|-----1122----2211--112244------------------------------|
|----------------------------------10-10-10--7\---------|
|-0000----2222----33------55557777—-8--8—-8--8\-----|
|-------------------------------------------------------|

 -------------------------------------------------|
 -------------------------------------------------|
 -------------------------------------------------|
 77779999101010107777--------99991010101099997777-|
 --------------------88888888---------------------|
 -------------------------------------------------|

third time guitar two (2:20)
|-RIFF-1-------------------------------------------|
|--------------------------------------------------|
|-----1122----2211--112244-------------------------|
|--------------------------------------------------|
|-0000----2222----33------555577778888888888888888-|
|--------------------------------------------------|

 ------------------------------------------|
 ------------------------------------------|
 ------------------------------------------|
 ------------------------666677776666------|
 555577778888888888888888------------88888-|
 ------------------------------------------|

guitar two fourth time (2:27)
|-RIFF-1------------------------------------------------------------|
|-------------------------------------------------------------------|
|-----1122----2211--112244------------------------------------------|
|-------------------------------------------------666677776666------|
|-0000----2222----33------555577778888888888888888------------88888-|
|-------------------------------------------------------------------|

guitar one fourth time (2:27)
|-RIFF-1------------------------------------------|
|-------------------------------------------------|
|-----1122----2211--112244------------------------|
|-------------------------7-----------------------|
|-0000----2222----33------5---2---3---------------|
|-----------------------------0---1---------------|

SOLO: (rhythm)

again RIFF 1 = 1 time both
again RIFF 1 = together with RIFF 1B
SOLO: (2:30)
               (sweep)
|---------------6------------------------12h\-8---11bh—11bh--|
|----------------6---------------------------------------------|
|-----------------7------------------10------------------------|
|--------------------------------------------------------------|
|-235653--------------0--------8--7----------------------------|
|-------65325--------------7-----------------------------------|

 -11121198911---13ph—12h13p12------------------------------|
 ------------9-----------------------------------------------|
 ------------------------------14~~~141414141414-16h17p16----|
 ------------------------------------------------------------|
 ------------------------------------------------------------|
 ------------------------------------------------------------|
     (sweep)          (sweep)
 -------13h16p13---------12h15p12---12--12--13--10--13-|
 -----14---------------13------------------------------|
 ---15---------------14--------------------------------|
 -16---------------15----------------------------------|
 ------------------------------------------------------|
 ------------------------------------------------------|

 ------------------------------------------|
 -91211910131210121512--131613---12\-------|
 ---------------------13------14-----------|
 ------------------------------------------|
 ------------------------------------------|
 ------------------------------------------|

both guitars (2:40)
|-RIFF-12----------------------------------------------------------|
|------------------------------------------------------------------|
|-----55--------44----55--------44----55--------44----55--------55-|
|---44----55--44----------55--44----44----55--44----------55--44---|
|-22----33--22----2222--33--22----22----33--22----2222--33--22-----|
|------------------------------------------------------------------|
(2:46)                             (2:55)
|-Drums-&-Bass-&-whispering-etc.---|then|
|----------------------------------|----|
|----------------------------------|----|
|----------------------------------|-4--|
|----------------------------------|-2--|
|----------------------------------|----|

both guitars (2:55)
|-RIFF-12--------------------------------------------------------------------|
|----------------------------------------------------------------------------|
|-----55--------44----55--------44----55--------44---------------------------|
|---44----55--44----------55--44----44----55--44-----9-----7-----6-----------|
|-22----33--22----2222--33--22----22----33--22-------7--8--5--8--4--8—-3---|
|-------------------------------------------------00----6-----6-----6--1-----|

both guitars (3:01)
|-RIFF-7—(2-times)|-RIFF-5-(2-times)-|-RIFF-7-(2-times)|-RIFF-5-(2-times)-----|
|-----------------|------------------|-----------------|------------------------|
|-----------------|------------------|-----------------|------------------------|
|-4-------6-------|------------------|-4-------6-------|------------------------|
|-2-6-4-3-4-3-5-6-|-22------44-------|-2-6-4-3-4-3-5-6-|-22------44-------------|
|---4-2-1---1-3-4-|---442211—-113344-|---4-2-1---1-3-4-|---442211—-113344---|
                   ending
|-RIFF-7—(2-times)|--------------------------------------|
|-----------------|----------------------------------------|
|-----------------|----------------------------------------|
|-4-------6-------|-4-------6-------4-------6-------4------|
|-2-6-4-3-4-3-5-6-|-2-6-4-3-4-3-5-6-2-6-4-3-4-3-5-6-2------|
|---4-2-1---1-3-4-|---4-2-1---1-3-4---4-2-1---1-3-4--------|
End.


RIVERS OF GORE TABLATURES - WWW.RIVERSOFGORE.COM
comments
We did not receive enough feedback on this tab! Please rate:
print report bad tab
1 2 3 4 5
I want to post or [tab]
guest
You may want to rate the tab now too:
select rating
Please do not post tabs as comments. Select "correction" instead!