Oops, an error
Loading. Please wait.

In The Kingdom Where Everything Dies The Sky Is Mortal Tab

136 views 1 this week
1 commentread comment
1 2 3 4 5
please rate
Autoscroll
+/-
esc
set tempo
stop
Contributor
Hey! There's an official Ultimate Guitar app which is ideal
for learning songs when you're away from computer. Get the app
WARNING: You are trying to view
                                    content from Ultimate-Guitar.com
                                    in an unauthorized application,
                                    which is prohibited.

                                    Please use an official Ultimate
                                    Guitar Tabs application for iPhone,
                                    iPad or Android to access legitimate
                                    chords, guitar, bass, and drum tabs
                                    from Ultimate-Guitar.com database.

                                    Type "ultimate guitar tabs" in Apple
                                    App Store's or Android Market's
                                    search to find the application.

Tuning B E A D F# B

Riff1

(0:06) Let ring...
|---------------------------------------------------|
|---------------------------------------------------|
|-6--------------6--------------------------------6-|
|-8--------------8----------------16--------------8-|
|-7--------------7----------------14--------------7-|
|-0--------------0----------------14--------------0-|


Riff2 (0:24)

       6 times
|-------------------|----|
|-------------------|----|
|-------------------|----|
|--------8-8-10-8-8-|----|
|-8-9-10------------|-10-|
|-------------------|----|
         . .    . .    .

Riff2b   1 time (Both Guitars)
|------------------------------|
|----------------88-1212121212-|
|-----9910101111---------------|
|-888--------------------------|
|------------------------------|
|------------------------------|

       6 times
|-------------------|----|
|-------------------|----|
|-------------------|----|
|--------8-8-10-8-8-|----|
|-8-9-10------------|-10-|
|-------------------|----|
         . .    . .    .

Riff2b   3 time (Both Guitars)
|------------------------------|
|----------------88-1212121212-|
|-----9910101111---------------|
|-888--------------------------|
|------------------------------|
|------------------------------|

Riff3
Note:
(#)PULL-PUSH the wammy bar. (in that order)
(#2)PULL-PUSH 2 TIMES.
(P#)play the note than PULL-PUSH the wammy
(P#2)Play the note than PULL PUSH the wammy 2 times
Guitar 1 (0:42)
|-------------------------------------------------------------|
|-------------------------------------------------------------|
|----#-------------------P#2-------#-------------------P#2----|
|----4--------------------4--------4--------------------4--3--|
|-9-----7--5--------9-#2--------9-----7--5--------9-#2--------|
|-7--2--5--3--2^-0--7\1---2--0--7--2--5--3--2^-0--7\1---2--1--|
     #                #2 P#2       #                #2 P#2

Guitar 2
|--------------------------------------------------------------------|
|--------------------------------------------------------------------|
|----#-------------------P#2-------#--------------------11-12-11-10--|
|----4--------------------4--------4---------------------------------|
|-9-----7--5--------9-#2--------9-----7--5--------9-#2---9-10--9--8--|
|-7--2--5--3--2^-0--7\1---2--0--7--2--5--3--2^-0--7\1----------------|
     #                #2 P#2       #                #2

Guitar 1
|-----------------------------------------------------------------|
|-----------------------------------------------------------------|
|----#-------------------P#2-------#------------------- P#--------|
|----4--------------------4--------4--------------------4--3--2---|
|-9-----7--5--------9-#2--------9-----7--5--------9-#2--------2---|
|-7--2--5--3--2^-0--7\1---2--0--7--2--5--3--2^-0--7\1---2--1--0---|
     #                #2 P#2       #                #2 P#

Guitar 2                                                              0:56
|---------------------------------------------------------------------------|
|---------------------------------------------------------------------------|
|----#-------------------P#2-------#--------------------11-12-11-10-9-------|
|----4--------------------4--------4----------------------------------Pause-|
|-9-----7--5--------9-#2--------9-----7--5--------9-#2---9-10--9--8-7-------|
|-7--2--5--3--2^-0--7\1---2--0--7--2--5--3--2^-0--7\1-----------------------|
     #                #2 P#2       #                #2


|------------------------------------------------------------|
|------------------------------------------------------------|
|----#-------------------P#2-------#-------------7--9--8--10-|
|----4--------------------4--------4-------------11-13-12-14-|
|-9-----7--5--------9-#2--------9-----7--5-------------------|
|-7--2--5--3--2^-0--7\1---2--0--7--2--5--3--2^-0-------------|
     #                #2 P#2       #


SCREAM


Riff4 (1:10)
|--------------------------------------------------------------------|
|--------------------------------------------------------------------|
|-10-9-7--------------------10h7-9h7-------11h8-11h8/7----------9--7-|
|-9--8-6-----------------10----------9---8-------------9-12-12-13-11-|
|--------7-10/8-8-11/9-9-8-------------9-7---------------11-11-------|
|--------6--9/7-7-10/8-8---------------7-----------------10-10-------|
                                       . .                . .
------------------------------------------------------------------------------|
------------------------------------------------------------------------------|
-------------------10h7-9h7---------11h8-11h8/7---------10-9-7/---------------|
----------------10----------9-7/3-3-------------9-12-12-9--8-6/---------------|
-4\6\7-7-9-8\10-8-------------6/2-2---------------11-11---------7-10\8-8-11\9-|
-3\5\6-5-7-7\9------------------------------------10-10---------6--9\7-7-10\8-|
                                                   . .
------------------------------------------------------------------------------|
------------------------------------------------------------------------------|
----10h7-9h7-------11h8-11h8/7------------------------------0-10h7-9h7--------|
-10----------9---8-------------9-12-12-7-5-6----------------9----------9---10-|
-8-------------9-7---------------11-11-6-4-5-4\7-4-7-9-8\10-8------------9-8--|
---------------7-----------------10-10-------3\6-4-5-7-7\9---------------7----|
               . .                . .                                    . .
--------------------------------------------------------------------------------|
--------------------------------------------------------------------------------|
11h8-11h8/7---------10-9-7/------------------10h7-9h7-------11h8-11h8\7---------|
------------9-12-12-9--8-6/---------------10----------9---8-------------9-12-12-|
--------------11-11---------7-10\8-8-11/9-8-------------9-7---------------11-11-|
--------------10-10---------6--9\7-7-10/8---------------7-----------------10-10-|
               . .                                      . .               . .
-------------------------------------------------------------------------------|
-------------------------------------------------------------------------------|
---------------------0-10h7-9h7-------11h8-11h8/7------------------------------|
7-5-6----------------9----------9---9-------------9-10-10-8/6-6----------------|
6-4-5-4\7-4-7-9-8\10-8------------9-8---------------9--9--7/5-5-4\7-4-7-9-8\10-|
------3\6-4-5-7-7\9---------------7-----------------8--8--------3\6-4-5-7-7\9--|
                                  . .               . .
------------------------------------------|
------------------------------------------|
----10h7-9h7-------11h8-11h8\7------------|
-10----------9---9-------------9-12-10-11-|
-8-------------9-8---------------11-9--10-|
---------------7-----------------10-8--9--|
               . .                . . .

Riff3
Guitar 1 (1:31)
|-------------------------------------------------------------|
|-------------------------------------------------------------|
|----#-------------------P#2-------#-------------------P#2----|
|----4--------------------4--------4--------------------4--3--|
|-9-----7--5--------9-#2--------9-----7--5--------9-#2--------|
|-7--2--5--3--2^-0--7\1---2--0--7--2--5--3--2^-0--7\1---2--1--|
     #                #2 P#2       #                #2 P#2

Guitar 2
|--------------------------------------------------------------------|
|--------------------------------------------------------------------|
|----#-------------------P#2-------#--------------------11-12-11-10--|
|----4--------------------4--------4---------------------------------|
|-9-----7--5--------9-#2--------9-----7--5--------9-#2---9-10--9--8--|
|-7--2--5--3--2^-0--7\1---2--0--7--2--5--3--2^-0--7\1----------------|
     #                #2 P#2       #                #2

Guitar 1
|-----------------------------------------------------------------|
|-----------------------------------------------------------------|
|----#-------------------P#2-------#------------------- P#--------|
|----4--------------------4--------4--------------------4--3--2---|
|-9-----7--5--------9-#2--------9-----7--5--------9-#2--------2---|
|-7--2--5--3--2^-0--7\1---2--0--7--2--5--3--2^-0--7\1---2--1--0---|
     #                #2 P#2       #                #2 P#


Guitar 2
|-------------------------------------------------------------------|
|-------------------------------------------------------------------|
|----#-------------------P#2-------#--------------------11-12-11-10-|
|----4--------------------4--------4--------------------------------|
|-9-----7--5--------9-#2--------9-----7--5--------9-#2---9-10--9--8-|
|-7--2--5--3--2^-0--7\1---2--0--7--2--5--3--2^-0--7\1---------------|
     #                #2 P#2       #                #2


|------------------------------------------------|
|------------------------------------------------|
|----#-------------------P#2-------#-------------|
|----4--------------------4--------4-------------|
|-9-----7--5--------9-#2--------9-----7--5-------|
|-7--2--5--3--2^-0--7\1---2--0--7--2--5--3--2^-0-|
     #                #2 P#2       #
Riff5 (1:51)
Guitar 1
|--------------------------------------------------|
|-----------------------------------------------14-|
|-11---5----9----3----3----9----6------------12----|
|-----------------------------------7--11--5-------|
|--------------------------------------------------|
|--------------------------------------------------|
  .    .     .   .    .    .    .   .   . .

Guitar 2
|-----------------------------------------------------|
|-----------------------------------------------------|
|-----------------------------------------------------|
|-----------------------------------------------------|
|-9----3----7----1----1----7----4---------------------|
|-----------------------------------5--9--3--12//////-|
  .    .    .    .    .    .    .   . . .

Cont... (Riff5)
---------------------------------|
---------------------------------|
----------7----------------------|
---------------------------------|
-7-------------------------------|
---10-9-8---10-9-8-7-6-5-4-3-3\8-|
 . . . . . . . . . . . . .



Riff6 (1:56)
    14 times     Ending
|--------------|------------------|
|--------------|------------------|
|-5/2---8/5----|-----5/2----------|
|--------------|----------5-------|
|----------6-3-|-6-3----4-3-4-5-4-|
|----3\8-------|--------2---2-3-2-|
           . .   . .    .   . . .



Riff7 (2:12) Guitar 1 (Clean)
|--------------------------------------------------------------------|
|-1-1-1-1---1-----1-1-1-1---1---1-1-1-1--1-1-1-1-1--2--1-1---1--1--1-|
|-5-5-5-5---5-----5-5-5-5---5---5-5-5-4--5-5-5-5-5--6--5-5---5--5--5-|
|-4-4-4-4---4-----4-4-4-4---4---4-4-4-4--4-4-4-4-4--5--4-4---4--4--4-|
|---------4---4-4---------4---4----------------------------4---------|
|---------2---2-2---------2---2----------------------------2---------|
                .

             Guitar 2 (Distorted)
|--------------------------------------------------------------------|
|-------------------------------1-1-1-1--1-1-1-1-1--2--1-1---1--1--1-|
|-------------------------------5-5-5-5--5-5-5-5-5--6--5-5---5--5--5-|
|-------------------------------4-4-4-4--4-4-4-4-4--5--4-4---4--4--4-|
|-------------------------4---4----------------------------4---------|
|-------------------------2---2----------------------------2---------|
Cont...      Guitar 1 (Clean) & Guitar 2 (Distorted)
---------------------------------------------------------------------|
-1-1-1-1---1---1-1-1-1--1-1-1-1-1--2--1-1---1--1--1--1-1-1-1---1-----|
-5-5-5-5---5---5-5-5-5--5-5-5-5-5--6--5-5---5--5--5--5-5-5-5---5-----|
-4-4-4-4---4---4-4-4-4--4-4-4-4-4--5--4-4---4--4--4--4-4-4-4---4-----|
---------4--------------------------------4------------------4-------|
---------2---2^---------------------------2------------------2----2^-|


|------------------------------------------------------------------------|
|-1-1-1-1--1-1-1-1-1--2--1-1---1-1-1-1~-1-1-1-1---1---1-1-1-1--1-1-1-1-1-|
|-5-5-5-5--5-5-5-5-5--6--5-5---5-5-5-5~-5-5-5-5---5---5-5-5-5--5-5-5-5-5-|
|-4-4-4-4--4-4-4-4-4--5--4-4---4-4-4-4~-4-4-4-4---4---4-4-4-4--4-4-4-4-4-|
|----------------------------4------------------4------------------------|
|----------------------------2------------------2---2^-------------------|


|-----------------|
|-2-1-1---1--1--1-|
|-6-5-5---5--5--5-|
|-5-4-4---4--4--4-|
|-----------------|
|-------2^--------|



Riff8 (2:31)
|--------------------------------------------------------------|
|--------------------------------------------------------------|
|--------------------------------------------------------------|
|---------4---------4---------4---4-----5-----4---4---------4--|
|-----4---3-------1-3-------1-3---3-----4-----3---3-------1-3--|
|-4-6---6---1-2-4-----1-2-4-----4---4-6---4-6---6---1-2-4------|
  . . . .    . . . .  . . . .   .   . .   . .   .   . . . .
----------------------------------------------------------------|
----------------------------------------------------------------|
----------------------------------------------------------------|
----------44----------4---4-----4---------4---------4---------4-|
-----6666-------------3---3-4---3-------1-3-------1-3-------1-3-|
-1-2---------1-2--4\6---6-----6---1-2-4-----1-2-4-----1-2-4-----|
 . . .... .. . .        .   . .   . . . .   . . . .   . . . .

         Riff9
         Start here (2:40)
-----------------------------------------------------------------------|
-----------------------------------------------------------------------|
-----------------------------------------------------------------------|
---------4-------3-4-------3-4-------3-4-------3-4-------3-4-------3-4-|
-------1-3-3-4-6-1-3-3-4-6-1-3-3-4-6-1-3-3-4-6-1-3-3-4-6-1-3-3-4-6-1-3-|
-1-2-4-----1-2-4-----1-2-4-----1-2-4-----1-2-4-----1-2-4-----1-2-4-----|
 . . . . . . . . . . . . . . . . . . . . . . . . . . . . . . . . . . .

Riff10 (2:45)
|---------------------------------------------------------------------|
|---------------------------------------------------------------------|
|---------------------------------------------------------------------|
|-------3---------4---------4---------4---------4---------4-----------|
|-------3-----4---3-------1-3-------1-3-------1-3-------1-3-------...-|
|-1-2-4---4-6---6---1-2-4-----1-2-4-----1-2-4-----1-2-4-----1-2-4-----|
  . . .   . . . .   . . . .   . . . .   . . . .   . . . .   . . .

Riff11 (2:50)

|---6---5-----------------4---3-------------------------------------|
|---5---4-----------------3---2-----------------7---6---------------|
|-----------------3-4-5-6---------------2-3-4-5-5---4---5-6-7-8-----|
|---------------4-2-3-4-5-------------3-1-2-3-4---3---7-4-5-6-7-6-7-|
|-7---6---7-5-6-3-----------5---6-4-5-2---------------6---------5-6-|
|---------6-4-5-----------------5-3-4-------------------------------|
  .   .   . . . . . . . .   .   . . . . . . . .   .   . . . . . . .
* PULL THE WAMMY TILL YOU GET THE RIGHT SOUND.

----6---5------------------4---3----------------------------------|
----5---4------------------3---2-----------------7---6------------|
------------4-5-6-7----------------------4-4-4-4-5---4------------|
-8--------6-3-4-5-6-5-6-7--------------3-3-3-3-3---3---3-4-5-6-*--|
-7----6---5---------4-5-6----5---6-4-5-2---------------2-3-4-5-3--|
---------------------------------5-3-4-------------------------2--|
 .    .   . . . . . . . .    .   . . . . . . . .   .   . . . . *

Riff2c 1 time (Both Guitars)
|---------------------1212121212-|
|----------------1212------------|
|-----9910101111-----------------|
|-888----------------------------|
|--------------------------------|
|--------------------------------|


Riff2 (variation) (3:01)

    First Time           15 times
|------------------|-------------------|
|------------------|-------------------|
|------------------|-------------------|
|-----------10-8-8-|--------8-8-10-8-8-|
|-8-10-------------|-8-9-10------------|
|------12-8--------|-------------------|
          .    . .          . .    . .

Riff2c 1 time (Both Guitars)
|---------------------1212121212-|
|----------------1212------------|
|-----9910101111-----------------|
|-888----------------------------|
|--------------------------------|
|--------------------------------|


     2 times
|-------------------|----|
|-------------------|----|
|-------------------|----|
|--------8-8-10-8-8-|----|
|-8-9-10------------|-10-|
|-------------------|----|
         . .    . .    .

Riff6 (3:22)

    4 times
|--------------|----------------------|
|--------------|----------------------|
|-5/2---8/5----|-5/2----8/5-----------|
|--------------|--------------5-----4-|
|----------6-3-|------------4-3-4-5-2-|
|----3\8-------|-----3\8----2---2-3---|
           . .              .   . .

cont...(4 times)
|--------------|
|--------------|
|-5/2---8/5----|
|--------------|
|----------6-3-|
|----3\8-------|
           . .
Riff7b (3:35) Guitar 1 (Clean) & Guitar 2 (Distorted)
---------------------------------------------------------------------|
-1-1-1-1---1---1-1-1-1--1-1-1-1-1--2--1-1---1--1--1--1-1-1-1---1-----|
-5-5-5-5---5---5-5-5-5--5-5-5-5-5--6--5-5---5--5--5--5-5-5-5---5-----|
-4-4-4-4---4---4-4-4-4--4-4-4-4-4--5--4-4---4--4--4--4-4-4-4---4-----|
---------4--------------------------------4------------------4-------|
---------2---2^---------------------------2------------------2----2^-|


---------------------------------|
-1-1-1-1--1-1-1-1-1--2--1-1---1--|
-5-5-5-5--5-5-5-5-5--6--5-5---5--|
-4-4-4-4--4-4-4-4-4--5--4-4---4--|
----------------------------4----|
----------------------------2----|
                            .

Riff10b (3:44)
|---------------------------------------------------------------------|
|---------------------------------------------------------------------|
|---------------------------------------------------------------------|
|-------3---------4---------4---------4---------4---------4-----------|
|-------3-----4---3-------1-3-------1-3-------1-3-------1-3-------...-|
|-1-2-4---4-6---6---1-2-4-----1-2-4-----1-2-4-----1-2-4-----1-2-4-----|
  . . .   . . . .   . . . .   . . . .   . . . .   . . . .   . . .

-----------------------------------------------------------------------|
-----------------------------------------------------------------------|
-----------------------------------------------------------------------|
---------4-------3-4-------3-4-------3-4-------3-4-------3-4-------3-4-|
-------1-3-3-4-6-1-3-3-4-6-1-3-3-4-6-1-3-3-4-6-1-3-3-4-6-1-3-3-4-6-1-3-|
-1-2-4-----1-2-4-----1-2-4-----1-2-4-----1-2-4-----1-2-4-----1-2-4-----|
 . . . . . . . . . . . . . . . . . . . . . . . . . . . . . . . . . . .


Cont... (3:54) Guitar 1 (Clean) & Guitar 2 (Distorted)
---------------------------------------------------------------------|
-1-1-1-1---1---1-1-1-1--1-1-1-1-1--2--1-1---1--1--1--1-1-1-1---1-----|
-5-5-5-5---5---5-5-5-5--5-5-5-5-5--6--5-5---5--5--5--5-5-5-5---5-----|
-4-4-4-4---4---4-4-4-4--4-4-4-4-4--5--4-4---4--4--4--4-4-4-4---4-----|
---------4--------------------------------4------------------4-------|
---------2---2^---------------------------2------------------2----2^-|


|------------------------------------------------------------------------|
|-1-1-1-1--1-1-1-1-1--2--1-1---1-1-1-1~-1-1-1-1---1---1-1-1-1--1-1-1-1-1-|
|-5-5-5-5--5-5-5-5-5--6--5-5---5-5-5-5~-5-5-5-5---5---5-5-5-5--5-5-5-5-5-|
|-4-4-4-4--4-4-4-4-4--5--4-4---4-4-4-4~-4-4-4-4---4---4-4-4-4--4-4-4-4-4-|
|----------------------------4------------------4------------------------|
|----------------------------2------------------2---2^-------------------|


|--------------------------------------|
|-2-1-1---1--1--1-1-1-1-1--------------|
|-6-5-5---5--5--5-5-5-5-5--------------|
|-5-4-4---4--4--4-4-4-4-4--4~--4~~~~~~-|
|--------------------------4~--4~~~~~~-|
|-------2^-----------------2---2~~~~~~-|
Riff12 (4:22) Acoustic Guitar
|-9-------------9---------------------15-15-------------|
|-10--------------10---------------15-------15----------|
|-11---------11------11---------15-------------15-------|
|-11-------11----------------17-------------------17----|
|-9------9----------------17-------------------------17-|
|-------------------------------------------------------|

cont...
-------------15-15-------------------------15-15-------------|
----------15-------15-------------------15-------15----------|
-------15-------------15-------------15-------------15-------|
----17-------------------17-------17-------------------17----|
-17-------------------------17-17-------------------------17-|
-------------------------------------------------------------|

-------------15------------------14-14-------------------------14-14-------------|
----------15----15------------14-------14-------------------14-------14----------|
-------15----------15------14-------------14-------------14-------------14-------|
----17------------------16-------------------16-------16-------------------16----|
17-------------------16-------------------------16-16-------------------------16-|
---------------------------------------------------------------------------------|

-------------14-|
----------14----|
-------14-------|
----16----------|
-16-------------|
----------------|

 Bridge (4:33)
|------------------|
|------------------|
|------------------|
|------------------|
|-9--9-8--6--9-9/6-|
|-8--8-7--4--8-8/4-|
       . .
Riff4b (4:36)
|--------------------------------------------------------------------|
|--------------------------------------------------------------------|
|-10-9-7--------------------10h7-9h7-------11h8-11h8/7----------9--7-|
|-9--8-6-----------------10----------9---8-------------9-12-12-13-11-|
|--------7-10/8-8-11/9-9-8-------------9-7---------------11-11-------|
|--------6--9/7-7-10/8-8---------------7-----------------10-10-------|
                                       . .                . .
------------------------------------------------------------------------------|
------------------------------------------------------------------------------|
-------------------10h7-9h7---------11h8-11h8/7---------10-9-7/---------------|
----------------10----------9-7/3-3-------------9-12-12-9--8-6/---------------|
-4\6\7-7-9-8\10-8-------------6/2-2---------------11-11---------7-10\8-8-11\9-|
-3\5\6-5-7-7\9------------------------------------10-10---------6--9\7-7-10\8-|
                                                  . .
------------------------------------------------------------------------------|
------------------------------------------------------------------------------|
----10h7-9h7-------11h8-11h8/7------------------------------0-10h7-9h7--------|
-10----------9---8-------------9-12-12-7-5-6----------------9----------9---10-|
-8-------------9-7---------------11-11-6-4-5-4\7-4-7-9-8\10-8------------9-8--|
---------------7-----------------10-10-------3\6-4-5-7-7\9---------------7----|
               . .                . .                                    . .
--------------------------------------------------------------------------------|
--------------------------------------------------------------------------------|
11h8-11h8/7---------10-9-7/------------------10h7-9h7-------11h8-11h8\7---------|
------------9-12-12-9--8-6/---------------10----------9---8-------------9-12-12-|
--------------11-11---------7-10\8-8-11/9-8-------------9-7---------------11-11-|
--------------10-10---------6--9\7-7-10/8---------------7-----------------10-10-|
              . .                                       . .                . .



--------------------------------------------------------------|
--------------------------------------------------------------|
---------------------0-10h7-9h7-------11h8-11h8/7-------------|
7-5-6----------------9----------9---9-------------9-12-10-11--|
6-4-5-4\7-4-7-9-8\10-8------------9-8---------------11-9--10--|
------3\6-4-5-7-7\9---------------7-----------------10-8--9---|
                                  . .                . . .

Riff3b
Guitar 1 (4:56)
|-------------------------------------------------------------|
|-------------------------------------------------------------|
|----#-------------------P#2-------#-------------------P#2----|
|----4--------------------4--------4--------------------4--3--|
|-9-----7--5--------9-#2--------9-----7--5--------9-#2--------|
|-7--2--5--3--2^-0--7\1---2--0--7--2--5--3--2^-0--7\1---2--1--|
     #                #2 P#2       #                #2 P#2

Guitar 2
|--------------------------------------------------------------------|
|--------------------------------------------------------------------|
|----#-------------------P#2-------#--------------------11-12-11-10--|
|----4--------------------4--------4---------------------------------|
|-9-----7--5--------9-#2--------9-----7--5--------9-#2---9-10--9--8--|
|-7--2--5--3--2^-0--7\1---2--0--7--2--5--3--2^-0--7\1----------------|
     #                #2 P#2       #                #2


----------------------------------------|
----------------------------------------|
----------------------0-10h7-9h7--------|
-7-5-6----------------9----------9---10-|
-6-4-5-4\7-4-7-9-8\10-8------------9-8--|
-------3\6-4-5-7-7\9---------------7----|
                                   . .
cont...
------------------------------------------------------------------------------|
------------------------------------------------------------------------------|
11h8-11h8/7---------7-5-6------------------10h7-9h7-------11h8-11h8\7---------|
------------9-12-12-6-4-5---------------10----------9---8-------------9-12-12-|
--------------11-11-------7-10\8-8-11/9-8-------------9-7---------------11-11-|
--------------10-10-------6--9\7-7-10/8---------------7-----------------10-10-|
               . .                                    . .                . .
---------------------------------------------------------------------------------|
---------------------------------------------------------------------------------|
-10-9-7----------------0-10h7-9h7-------11h8-11h8/7------------------------------|
-9--8-6----------------9----------9---9-------------9-10-10-8/6-6----------------|
--------4\7-4-7-9-8\10-8------------9-8---------------9--9--7/5-5-4\7-4-7-9-8\10-|
--------3\6-4-5-7-7\9---------------7-----------------8--8--------3\6-4-5-7-7\9--|
                                    . .               . .

                                           Ending (5:11)
---------------------------------------------------------------------|
---------------------------------------------------------------------|
----10h7-9h7-------11h8-11h8\7-------------8~---9-9---8~-------------|
-10----------9---9-------------9-12-10-11--7~---8-8---7~---8-7-----4-|
-8-------------9-8---------------11-9--10--6~---7-7---6~---7-6-7-8-4-|
---------------7-----------------10-8--9-----------------------6-7-2-|
               . .                . . .                    . . . . .
End.

Tab Legend

. - palm mute
\ - slide down to
/ - slide up to
h - hammer on
t - tap
ph - pinched harmonic
^ - Hold bend
r release bend
~ - vibrato bend
() - ghost note, sustained note
" - tremolo note
b - Bend
f - full bend
h - half bend
q - quarter bend
^ - Hold bend
r - release bend
comments
We did not receive enough feedback on this tab! Please rate:
print report bad tab
1 2 3 4 5
1 comment total.
0 reply
Comrade Satan wrote on July 28 2013, 10:39 am

dat riff... who the **** can actually play that?

I want to post or [tab]
guest
You may want to rate the tab now too:
select rating
Please do not post tabs as comments. Select "correction" instead!