Oops, an error
Loading. Please wait.

Loathe Tab

40 views 1 this week
no commentswrite comment
1 2 3 4 5
please rate
Autoscroll
+/-
esc
set tempo
stop
Contributor
Hey! There's an official Ultimate Guitar app which is ideal
for learning songs when you're away from computer. Get the app
WARNING: You are trying to view
                                    content from Ultimate-Guitar.com
                                    in an unauthorized application,
                                    which is prohibited.

                                    Please use an official Ultimate
                                    Guitar Tabs application for iPhone,
                                    iPad or Android to access legitimate
                                    chords, guitar, bass, and drum tabs
                                    from Ultimate-Guitar.com database.

                                    Type "ultimate guitar tabs" in Apple
                                    App Store's or Android Market's
                                    search to find the application.
Tuning B E A D F# B


 Riff 1 (0:00)
  Gtrs. 1&2                                                  6x
||-----------|--------------------------------------------------||
||----|.------------------------------------------------.||
||-----------|----------------------------------3ph~-----3h(4)--||
||-----8h(9)-|.--7\6/7/9\6----------------8\7\6--------4-------.||
||-8-9-------|---5\4/5/7\4---9\8/9/10\8---6\5\4------1----------||
||-6---------|-0-----------0-7\6/7/8-\6-0-----------------------||
   . .                                               . .




 Riff 2 (0:18)
  Gtr. 1
||-------------------------------------------------------||
||-------------------------------------------------------||
||-------------------------------------------------7p6---||
||-----8h(9)-------8h(9)-------8h(9)-------8h9p8h9-----9-||
||-2-9---------8-9---------2-9---------8-9---------------||
||-0-----------6-----------0-----------6-----------------||
   . .         . .         . .         . .




 Riff 1 [Second Section Only, Omit First Note] 2x (0:22)




 Riff 3 (0:28)
  Gtr. 1
||-----------------------------------|--------------------------|
||-----------------------------------|---------7p6--------------|
||-----------------------------------|0--6-7p6-----7~---6h7p6h7-|
||-----8h(9)-------8h(9)-------8h(9)-|---------------5/6--------|
||-2-9---------8-9---------2-9-------|--------------------------|
||-0-----------6-----------0---------|--------------------------|
|| . .         . .         . .                                  |
||Gtr. 2                                                        |
||-----------------------------------|--------------------------|
||-----------------------------------|--------------------------|
||-----------------------------------|---------3p2--------------|
||-----8h(9)-------8h(9)-------8h(9)-|--03-4p3-----4~---3~~~----|
||-2-9---------8-9---------2-9-------|2--------------2h5--------|
||-0-----------6-----------0---------|--------------------------|
 Riff 3 (Cont.)
   Gtr. 1
 |-----------------------------------||
 |-------------------------------3p2-||
 |-----6h(7)-------6h(7)-0-3h4p3-----||
 |---8-----------8-------------------||
 |-9-----------9---------------------||
 |-----------------------------------||
 | . .         . .                   ||
 | Gtr. 2                            ||
 |-----------------------------------||
 |-----------------------------------||
 |-------------------------------3p2-||
 |-----8h(9)-------8h(9)---3-4p3-----||
 |-8-9---------2-9-------2-----------||
 |-6-----------0---------------------||
   . .         . .




 Riff 4 (0:34)
   Gtr. 1                                                         3x
||--------------------------------|---------------------------------||
||--------------------------------|.-------------------------------.||
||--------------------------------|---------------------------------||
||---------1----------7---7/8-----|.---------7~-------7---7/8------.||
||-3~-3333-3-5-7-5-4~-5-6-5/6--2-2|-3~-33346---7-5-4~-5-6-5/6--2-2--||
||-1~--------3-5-3-2~-5-4-5/6--0-0|-1~---------5-3-2~-5-4-5/6--0-0--||
||     .... . . . . .          . .     .....   . . .           . . ||
||Gtr. 2                                                            ||
||--------------------------------|---------------------------------||
||--------------------------------|.-------------------------------.||
||--------------------------------|---------------------------------||
||--------------------7-----------|.---------5~-------7------------.||
||-3---------5-7-5-4~-5-6------2-2|-3~-33346---7-5-4~-5-6------2-2--||
||-1---------3-5-3-2~-5-4-5/6660-0|-1~---------5-3-2~-5-4-5/6660-0--||
    .         . . . .          . .     .....   . . .           . .




 Riff 5 (0:45)
  Gtrs. 1&2                    2x                3x
||-------------------------------|-----------------|---------------||
||.-----------------------------.|.---------------.|---------------||
||-------------------------------|-----------------|---------------||
||.---7---7/8--------7---7/8----.|.---7---7/8-----.|---7---7-7~----||
||-4~-5-6-5/6-2-2-4~-5-6-5/6-2-2-|-4~-5-6-5/6------|4~-5-6-5-5~--4-||
||-2~-5-4-5/6-0-0-2~-5-4-5/6-0-0-|-2~-5-4-5/6-0000-|2~-5-4-5-5~--2-||
               . .           . .              ....               .




 Riff 4 [Second Section Only] 4x (0:57)
 Riff 6 (1:09)
   Gtr. 1
||---------------------------------------------------------|
||---------------------------------------------------------|
||-*---------------------------*---------------------------|
||-17\16\\\-----444444-4//16---17\16\\\-----444444-4//16---|
||-*--------2-5----------------*--------2-5----------------|
||-15\14\\\-0-3--------2//14-0-15\14\\\-0-3--------2//14-0-|
||          . .              .          . .              . |
||Gtr. 2                                                   |
||---------------------------------------------------------|
||---------------------------------------------------------|
||-----------------------------*---------------------------|
||-5~~~\\\\-----444444-4//16---18\16\\\-----444444-4//16---|
||----------2-5----------------*--------2-5----------------|
||-3~~~\\\\-0-3--------2//14-0-15\14\\\-0-3--------2//14-0-|
            . .              .          . .              .

 Riff 6 (Cont.)
   Gtr. 1
 |-------------------||
 |-------------------||
 |-*------------444--||
 |-17\16\\\---------#|| # Careful about this riff changeover. This last note here
 |-*--------2-5-----0||   is really the first note of the next riff but for formatting
 |-15\14\\\-0-3------||   reasons I have made it part of this riff.
 |                   ||
 | Gtr. 2            ||
 |-------------------||
 |-------------------||
 |-------------------||
 |-11~~~\\\-----444-#||
 |----------2-5-----0||
 |----------0-3------||

  *Start on the 15th fret and slide instantly down a fret before continuing to slide
   down the neck. You basically want to slide down the neck from the 15th fret whilst
   sort of "emphasising" the slide at the 14th fret.




 Riff 7 (1:14)
   Gtr. 1
||-------------------------------------------------------------------|
||------------------4~-----------------------------------------------|
||------------777---2~--------777-----------------------7777----6666-|
||----------0-----0---------0-----0-----55554444------------4444-----|
||----3--4-------------3--4---------4444--------33335555-------------|
||-9\-1--2-------------1--2------------------------------------------|
||          .     .         .     . ................................ |
||Gtr. 2                                                             |
||-------------------------------------------------------------------|
||-------------------------------------------------------------------|
||-2~---------777---2~--------777-----------------------7777----6666-|
||-1~-------0-----0-1~------0-----0-----55554444------------4444-----|
||-------4-------------3--4---------4444--------33335555-------------|
||-------2-------------1--2------------------------------------------|
            .     .         .     . ................................
 Riff 7 (Cont.)
   Gtr. 1
 |-------------------------------------------------------------------||
 |-4~---------------4~-----------------------------------------------||
 |-2~---------777---2~--------777-----------------------7777----6666-||
 |----------0-----0---------0-----0-----55554444------------4444-----||
 |----3--4-------------3--4---------4444--------33335555-------------||
 |----1--2-------------1--2------------------------------------------||
 |          .     .         .     . ................................ ||
 |Gtr. 2                                                             ||
 |-------------------------------------------------------------------||
 |-------------------------------------------------------------------||
 |-2~---------777---2~--------777-----------------------7777----6666-||
 |-1~-------0-----0-1~------0-----0-----55554444------------4444-----||
 |----3--4-------------3--4---------4444--------33335555-------------||
 |----1--2-------------1--2------------------------------------------||
            .     .         .     . ................................


 Riff 8 (1:23)
  Gtrs. 1&2                                                      2x
||------------------------------------------------------------------||
||.----------------------------------------------------------------.||
||------------------------------------------------------------------||
||.----55554444--------5---4-----------55554444--------5---4-------.||
||-------------333355552---1-------------------333355552---1--------||
||-4444------------------------22224444------------------------2222-||
   .....................   .   .........................   .   ....



 Riff 9 (1:32)
   Gtr. 1
||---------------------------------||
||---------------------------------||
||-5-----8-5-----8-5-----8---------||
||---4/7-----4/7-----4/7---0-4-2---||
||-------------------------------1-||
||---------------------------------||
||                         . . . . ||
||Gtr. 2                           ||
||---------------------------------||
||---------------------------------||
||-------8-------8-------8---------||
||---4/7-----4/7-----4/7---0-4-2---||
||-3-------3-------3-------------1-||
||---------------------------------||
    .      .       .       . . . .



 Riff 8 1x (1:34)



 Riff 10 (1:38)
  Gtr. 1                                                    2x
||-------------------------------------------------|---------||
||.------------------------------------------------|*-*-*-*-.|| *2nd Time Swap
||-------8-------8-------8-------8-------8-------8-|------2--||
||.----7-------7-------7-------7-------7-------7---|0-4-2-1-.|| Guitar Parts
||-3-0-----3-0-----3-0-----3-0-----3-0-----3-0-----|---------||
||-------------------------------------------------|---------||
|| . .     . .     . .     . .     . .     . .      . . . . ||
||Gtr. 2                                                       ||
||-------------------------------------------------|---------||
||.------------------------------------------------|*-*-*-*-.||
||-------8-------8-------8-------8-------8-------8-|------3--||
||.--4/7-----4/7-----4/7-----4/7-----4/7-----4/7---|0-4-2---.||
||-3---------------3-------3-------3-------3-------|---------||
||---------0---------------------------------------|---------||
   .       .       .       .       .       .        . . . .
 Riff 11 (1:45)
  Gtr.1
||--------------------------------------------------|
||--------------------------------------------------|
||---------------------5555--------------------5555-|
||-44443333----------------44443333-----------------|
||---------1111--------------------1111-------------|
||-------------11114444----------------11114444-----|
|| ....................    ....................     |
||Gtr. 2                                            |
||--------------------------------------------------|
||--------------------------------------------------|
||---------------------5555-------------------------|
||-44443333----------------44443333------------5~---|
||---------1111--------------------1111--------3~---|
||-------------11114444----------------11114444-----|
   ....................    .....................

 Riff 11 (Cont.)
   Gtr. 1
 |--------------------------------------------------||
 |---------------------5555-------------------------||
 |---------------------------------------------5555-||
 |-44443333----------------44443333-----------------||
 |---------1111--------------------1111-------------||
 |-------------11114444----------------11114444-----||
 | ....................    ....................     ||
 | Gtr. 2                                           ||
 |--------------------------------------------------||
 |--------------------------------------------------||
 |--------------------------------------------------||
 |-44443333----------------44443333------------5~---||
 |---------1111--------------------1111--------3~---||
 |-------------11114444----------------11114444-----||
   ....................    .....................


 Riff 7A (1:52)
   Gtr. 1
||--------------------------------------------------------------------|
||------------------4~------------------------------------------------|
||------------777---2~--------777-----------------------7777----6666--|
||----------0-----0---------0-----0-----55554444------------4444------|
||----3--4-------------3--4---------4444--------33335555--------------|
||-9\-1--2-------------1--2-------------------------------------------|
||          .     .         .     . ................................ |
||Gtr. 2                                                              |
||--------------------------------------------------------------------|
||--------------------------------------------------------------------|
||-2~---------777---2~--------777-----------------------7777----6666--|
||-1~-------0-----0-1~------0-----0-----55554444------------4444------|
||----3--4-------------3--4---------4444--------33335555--------------|
||----1--2-------------1--2-------------------------------------------|
            .     .         .     . ................................

 Riff 7A (Cont.)
   Gtr. 1
 |--------------------------------------------------------------------|
 |-4~---------------4~------------------------------------------------|
 |-2~---------777---2~----------------------------------7777----6666--|
 |----------0-----0---------0-777-0-----55554444------------4444------|
 |----3--4-------------3--4---------4444--------33335555--------------|
 |----1--2-------------1--2-------------------------------------------|
 |          .     .         .     . ................................ |
 |Gtr. 2                                                              |
 |--------------------------------------------------------------------|
 |--------------------------------------------------------------------|
 |-2~---------777---2~--------777-----------------------7777----6666--|
 |-1~-------0-----0-1~------0-----0-----55554444------------4444------|
 |----3--4-------------3--4---------4444--------33335555--------------|
 |----1--2-------------1--2-------------------------------------------|
            .     .         .     . ................................
 Riff 7A (Cont.)
   Gtr. 1                                                           2x
 |--------------------------------------------------------------------||
 |.4~---------------4~-----------------------------------------------.||
 |-2~---------777---2~--------777-----------------------7777----6666--||
 |.---------0-----0---------0-----0-----55554444------------4444-----.||
 |----3--4-------------3--4---------4444--------33335555--------------||
 |----1--2-------------1--2-------------------------------------------||
 |          .     .         .     . ................................ ||
 |Gtr. 2                                                              ||
 |--------------------------------------------------------------------||
 |.------------------------------------------------------------------.||
 |-2~---------777---2~--------777-----------------------7777----6666--||
 |.1~-------0-----0-1~------0-----0-----55554444------------4444-----.||
 |----3--4-------------3--4---------4444--------33335555--------------||
 |----1--2-------------1--2-------------------------------------------||
            .     .         .     . ................................




 Riff 6A (2:11)
   Gtr. 1
||---------------------------------------------------------|
||---------------------------------------------------------|
||---------------------------------------------------------|
||-17\16\\\-----444444-4//16---17\16\\\-----444444-4//16---|
||----------2-5-------------------------2-5----------------|
||-15\14\\\-0-3--------2//14-0-15\14\\\-0-3--------2//14-0-|
||          . .              .          . .              . |
||Gtr. 2                                                   |
||---------------------------------------------------------|
||---------------------------------------------------------|
||---------------------------------------------------------|
||-5~~~\\\\-----444444-4//16---18\17\\\-----444444-4//16---|
||----------2-5-------------------------2-5----------------|
||-3~~~\\\\-0-3--------2//14-0-15\14\\\-0-3--------2//14-0-|
            . .              .          . .              .

 Riff 6A (Cont.)
   Gtr. 1
 |---------------------------||
 |---------------------------||
 |---------------------------||
 |-17\16\\\-----444444-4//16-||
 |----------2-5--------------||
 |-15\14\\\-0-3--------2//14-||
 |          . .              ||
 | Gtr. 2                    ||
 |---------------------------||
 |---------------------------||
 |---------------------------||
 |-17\16\\\-----444444-4//16-||
 |----------2-5--------------||
 |-15\14\\\-0-3--------2//14-||
            . .


 Riff 12 (2:16)
  Gtrs. 1&2
||----------------------------------------------------------------------|
||----------------------------------------------------------------------|
||----------------------------------------------------------------------|
||---------2------------2-----------3-----------00--0-------22--22------|
||-0------------------33----------55----------22--22------33--33--------|
||-0--------------0055--------0077--------0044--------0055--------0~----|
   .              ......      ......      .......... ............
 Riff 12 (Cont.)
  Gtrs. 1&2
 |----------------------------------||
 |----------------------------------||
 |----------------------------------||
 |-0---0----------------------------||
 |---2-----2-------------225-2------||
 |-------44----------0044------4----||
   . . . ...         ....... . .




 Riff 13 (2:26)
  Gtr. 1
||--------------------------------------------------------------------------|
||.-------------------------------------------------------------------------|
||--------------------------------------------------------------------------|
||.------------2222----2222------------2222----2222------------5555----5555-|
||---------3-3-----3333------------3-3-----3333------------5-5-----5555-----|
||-0-0-5-5-----------------0-0-5-5-----------------0-0-7-7------------------|
|| . . . . . . ............. . . . . . ............. . . . . . ............ |
||Gtr. 2                                                                    |
||--------------------------------------------------------------------------|
||.-------------------------------------------------------------------------|
||--------------------------------------------------------------------------|
||.------------2222----2222------------2222----2222------------5555----5555-|
||---------3-3-----3333------------3-3-----3333------------5-5-----5555-----|
||-0-0-5-5-----------------0-0-5-5-----------------0-0-7-7------------------|
   . . . . . . ............. . . . . . ............. . . . . . ............

 Riff 13 (Cont.)
   Gtr. 1
 |--------------------------------------------------------------------------|
 |--------------------------------------------------------------------------|
 |--------------------------------------------------------------------------|
 |-------------0000----0000------------2222----2222------------3333----3333-|
 |---------2-2-----2222------------3-3-----3333------------5555----5555-----|
 |-5-5-4-4-----------------0-0-5-5-----------------0-0-7-7------------------|
 | . . . . . . ............. . . . . . ............. . . . ................ |
 | Gtr. 2                                                                   |
 |--------------------------------------------------------------------------|
 |--------------------------------------------------------------------------|
 |--------------------------------------------------------------------------|
 |-------------0000----0000------------2222----2222------------3333----3333-|
 |---------2-2-----2222------------3-3-----3333------------5555----5555-----|
 |-0-0-4-4-----------------0-0-5-5-----------------0-0-7-7------------------|
   . . . . . . ............. . . . . . ............. . . . ................

 Riff 13 (Cont.)
   Gtr. 1                                        2x
 |-------------------------------------------------||
 |------------------------------------------------.||
 |-------------2222----2222------------------------||
 |---------3333----3333----------------3-3-----6-6.||
 |-----5-5-------------------------5-5-----5-5-----||
 |-0-0---------------------0-0-7-7-----------------||
 | . . . . ................. . . . . . . . . . . . ||
 | Gtr. 2                                           ||
 |-------------------------------------------------||
 |------------------------------------------------.||
 |-------------------------------------------------||
 |-------------3333----3333------------0-0-----2-2.||
 |---------5555----5555------------2-2-----2-2-----||
 |-0-0-7-7-----------------0-0-4-4-----------------||
   . . . . ................. . . . . . . . . . . .
 Riff 14 (2:44)
   Gtr. 1                                          2x
||-------------------------|-------------------------|---------------------|
||-------5/6---------------|.-----5/6---------------.|-------5/6-----------|
||-------3/4---------------|------3/4----------------|-------3/4-----------|
||-------2/3-----7---6-8-6-|.-----2/3-----7---6-8-6-.|-------2/3-----7---6-|
||-----------7-6-5-8-6-6-6-|----------7-6-5-8-6-6-6--|-----------7-6-5-8-6-|
||-0-1-0-----5-4---6-------|0-1-0-----5-4---6--------|-0-1-0-----5-4---6---|
|| .   .     . .   .   .    .   .     . .   .   .      .   .     . .   .   |
|| Gtr. 2                                                                  |
||-------------------------|-------------------------|---------------------|
||-------------------------|.-----------------------.|---------------------|
||-------3-ph--------------|-------------------------|---------------------|
||-------2-3~----7---6-8-7\|.-----3/4-----7---6-8-7\.|-------3/4-----7---6-|
||-----------7-6-5-8-6-6---|------1/2-7-6-5-8-6-6----|-------1/2-7-6-5-8-6-|
||-0-1-0-----5-4---6-------|0-1-0-----5-4---6--------|-0-1-0-----5-4---6---|
   .   .     . .   .   .    .   .     . .   .   .      .   .     . .   .

 Riff 14 (Cont.)
  Gtrs. 1&2
 |-----------------------------------------------------------------------------|
 |-----------------------------------------------------------------------------|
 |-------------8-8-8-------------------------------------------8-8-8-----------|
 |-7-7-7-------6-6-6-----------------3/4-----7---6-7-7-7-------6-6-6-----------|
 |-5-5-5-3-5-3-6-6-6-6-6-6-6-6-------1/2-7-6-5-8-6-5-5-5-3-5-3-6-6-6-6-6-6-6-6-|
 |-------3-3-3-------4-4-4-4-4-0-1-0-----5-4---6---------3-3-3-------4-4-4-4-4-|
   . . . . . . . . . . . . . . .   .     . .   .   . . . . . . . . . . . . . .

 Riff 14 (Cont.)
   Gtr. 1
 |--------------------------------------------------------------------------||
 |--------------------------------------------------------------------------||
 |--------------------------------------------------------------------------||
 |-------3/4-----7---6-8-6-------3/4-----7---6-8-6-------3/4-----7---6-8-6--||
 |-------1/2-7-6-5-8-6-6-6-------1/2-7-6-5-8-6-6-6-------1/2-7-6-5-8-6-6-6--||
 |-0-111-----5-4---6-------0-111-----5-4---6-------0-111-----5-4---6--------||
 | . ...     . .   .   .   . ...     . .   .   .   . ...     . .   .   .    ||
 | Gtr. 2                                                                   ||
 |--------------------------------------------------------------------------||
 |--------------------------------------------------------------------------||
 |--------------------------------------------------------------------------||
 |-------3/4-----7---6-8-7\------3/4-----7---6-8-7\------3/4-----7---6-8-7\-||
 |-------1/2-7-6-5-8-6-6---------1/2-7-6-5-8-6-6---------1/2-7-6-5-8-6-6----||
 |-0-111-----5-4---6-------0-111-----5-4---6-------0-111-----5-4---6--------||
   . ...     . .   .   .   . ...     . .   .   .   . ...     . .   .   .




 Riff 2 1x (3:08)




 Riff 7B (3:11)
   Gtr. 1
||-------------------------------------------------------------------|
||------------------4~-----------------------------------------------|
||------------777---2~--------777-----------------------7777----6666-|
||----------0-----0---------0-----0-----55554444------------4444-----|
||----3--4-------------3--4---------4444--------33335555-------------|
||-9\-1--2-------------1--2------------------------------------------|
||          .     .         .     . ................................ |
||Gtr. 2                                                             |
||-------------------------------------------------------------------|
||-------------------------------------------------------------------|
||-2~---------777---2~--------777-----------------------7777----6666-|
||-1~-------0-----0-1~------0-----0-----55554444------------4444-----|
||-------4-------------3--4---------4444--------33335555-------------|
||-------2-------------1--2------------------------------------------|
            .     .         .     . ................................
 Riff 7B (Cont.)
   Gtr. 1                                                           4x
 |----------------------------------|---------------------------------||
 |-4~---------------4~--------------|.-------------------------------.||
 |-2~---------777---2~--------777---|---------------------------------||
 |----------0-----0---------0-----0-|.---55554444--------5---4-------.||
 |----3--4-------------3--4---------|------------333355552---1--------||
 |----1--2-------------1--2---------|4444------------------------2222-||
 |          .     .         .     . .....................    .   .... ||
 |Gtr. 2                                                              ||
 |----------------------------------|---------------------------------||
 |----------------------------------|.-------------------------------.||
 |-2~---------777---2~--------777---|---------------------------------||
 |-1~-------0-----0-1~------0-----0-|.---55554444--------5---4-------.||
 |----3--4-------------3--4---------|------------333355552---1--------||
 |----1--2-------------1--2---------|4444------------------------2222-||
            .     .         .     . .....................    .   ....




 Riff 9 1x (3:27)




 Riff 10 1x (3:30)




 Riff 15 (3:33)
   Gtr. 1                                                           3x
||-------------------------------------------------------------------||
||.-----------------------------------------------------------------.||
||-----------------------------------------------------7777----6666--||
||.----55554444--------5---4-----------55554444------------4444-----.||
||-------------333355552---1-------4444--------33335555--------------||
||-4444------------------------2222----------------------------------||
   .....................   .   ....................................




 Riff 16 (3:46)
   Gtr. 1
||-----------------23\------||
||--------------------------||
||----111111111111----------||
||--------------------------||
||-11-----------------------||
||--9-----------------------||
|| . . . . . . .            ||
|| Gtr. 2                   ||
||-----------------23\------||
||--------------------------||
||--------------------------||
||----121212121212----------||
||-11-----------------------||
||--9-----------------------||
    . . . . . . .




 Riff 4 [Second Section Only] 4x (3:48)
 Riff 17 (3:59)
   Gtrs. 1&2
||---------------------------------------------|
||.--------------------------------------------|
||---6666--------7777--------6666--------------|
||.------8p7---------6p0---------8p7---------5-|
||-6---------8-6---------9-7---------8-6-4-5-3-|
||-4---------6-4---------7-5---------6-4-2-3---|
   .         . .         . .         . .

 Riff 17 (Cont.)
  Gtrs. 1&2                                   2x
 |----------------------------------------------||
 |---------------------------------------------.||
 |---6666--------7777-------6666----------------||
 |-------8p7---------6p0--------8p7----------6~.||
 |-6---------8-6---------9-7---------9-7-4-5-3~-||
 |-4---------6-4---------7-5---------6-4-2-3----||
   .         . .         . .         . . . .




 Riff 1 [Second Section Only, Omit First Note First Time] 2x (4:12)




 Riff 5 [With All Repeats, Underneath Solo] 1x (4:18)

 Solo (4:18)
  Gtr. 3
||-------------------------------------------------------------------|
||-------------------------------11----------------------------------|
||----------12--11--11b~~~~~-1112--12111211--111211--111312~b(14)r---|
||-----------------------------------------14------14----------------|
||-/9--9-------------------------------------------------------------|
||-------------------------------------------------------------------|

  Gtr. 3
 |-----18-----------------------------------------------------------------------1819-|
 |-1920--201920192017191517141514~~-----------------------------------1921221921-----|
 |------------------------------------------------------17------181921---------------|
 |-----------------------------------------------14~1617--171617---------------------|
 |-----------------------------------------141617------------------------------------|
 |-----------------------------------141617------------------------------------------|

  Gtr. 3
 |---18192121~~-------------------21--19--18bh~~~~r---211917211716\\-|
 |-21----------------19--18bq~~--------------------------------------|
 |--------------\18--------------------------------------------------|
 |-------------------------------------------------------------------|
 |-------------------------------------------------------------------|
 |-------------------------------------------------------------------|

  Gtr. 3
 |---------------------------------19p16h19h22~~\--------------------17--------------||
 |-----15h18p15-----18h21p18-----18----------------------15------------18191817b~~~~~||
 |---16-----------19-----------19------------------16--16--16------------------------||
 |-18-----------21-----------21----------------------18------1815-14-----------------||
 |-----------------------------------------------------------------------------------||
 |-----------------------------------------------------------------------------------||
 Riff 14A (4:30)
   Gtr. 1
||---------------------------------------------------------------------|
||-------5/6---------------------5/6-----------------|
||-------3/4---------------------3/4-----------------------------------|
||-------2/3-----7---6-8-6-------2/3-----7---6-8-6---------------------|
||-----------7-6-5-8-6-6-6-----------7-6-5-8-6-6-6---------------------|
||-0-1-0-----5-4---6-------0-1-0-----5-4---6---------------------------|
|| .   .     . .   .   .   .   .     . .   .   .                       |
|| Gtr. 2                                                              |
||---------------------------------------------------------------------|
||---------------------------------------------------|
||-------3-ph----------------------------------------------------------|
||-------2-3~----7---6-8-7\------3/4-----7---6-8-7\--------------------|
||-----------7-6-5-8-6-6---------1/2-7-6-5-8-6-6-----------------------|
||-0-1-0-----5-4---6-------0-1-0-----5-4---6---------------------------|
   .   .     . .   .   .   .   .     . .   .   .




 Riff 18 (4:37)*
   Gtr. 1                                    tp////
||-------------------------------------------16++++(28)-----|
||.---------------------------------------------------------|
||-----------------------------------6-----9b---------------|
||.12\\\\\----------3/6-\\-------------5-6------------------|
||-11\\\\\----------4/7-\\----------------------------------|
||---------44447777---------00000000------------------------|
||         ........         ........ . . .                  |
|| Gtr. 2                                    tp//    \\     |
||-------------------------------------------19++(22)++-----|
||.---------------------------------------------------------|
||-----------------------------------6----------------------|
||.12\\\\\-----------------------------5-6-6----------------|
||------------------12\\\\3---------------------------------|
||---------44448888---------00005555------------------------|
           ........         ........ . . . .

 Riff 18 (Cont.)
   Gtr. 1                                    tp////          2x
 |-------------------------------------------16++++(28)--------||
 |------------------------------------------------------------.||
 |-----------------------------------7-7-----------------------||
 |-12\\\\\----------3/6-\\-----------6-5--6-------------------.||
 |-11\\\\\----------4/7-\\-------------------------------7-8---||
 |---------44447777---------00000000-----------------------6---||
 |         ........         ........ . .                 . .    ||
 | Gtr. 2                                    tp//    \\         ||
 |-------------------------------------------19++(22)++--------||
 |------------------------------------------------------------.||
 |----------------------------------------9--------------------||
 |-12\\\\\---------------------------5-5--6-------------------.||
 |------------------12\\\\3----------3-4-----------------7-8---||
 |---------44448888---------00005555-----------------------6---||
           ........         ........ . .                 . .

*Ok, this is one crazy riff. It's hard enough without the shit at the end! You're going
to have to listen very hard to the rhythm of this riff, quite a few syncopated notes
in there. The "tp" indicates 'tap with your pick', and the '+' symbol indicates to pick slide.
Obviously, not many of you have 28-fret guitars, so slide past the fretboard! Personally, I'm
finding I hit the right pitch when I slide right to the centre of my neck position   Humbucker.
Either way, chances are it's going to take you a lot of practice to get this riff down
properly....
 Riff 19 (4:51)
   Gtr. 1
||-----------------||
||---------7bq~\---||
||-7-5-4-----------||
||-------5---------||
||-----------------||
||-----------------||
|| . . . .         ||
|| Gtr. 2          ||
||-----------------||
||-----------------||
||-----------------||
||-7-5-4-----------||
||-5-3-2-5-6~~\----||
||-------3-4~~\----||
   . . . .

End.
comments
We did not receive enough feedback on this tab! Please rate:
print report bad tab
1 2 3 4 5
I want to post or [tab]
guest
You may want to rate the tab now too:
select rating
Please do not post tabs as comments. Select "correction" instead!