Oops, an error
Loading. Please wait.

Orgiastic Disembowelment Tab

110 views 1 this week
no commentswrite comment
1 2 3 4 5
please rate
Autoscroll
+/-
esc
set tempo
stop
Contributor
Hey! There's an official Ultimate Guitar app which is ideal
for learning songs when you're away from computer. Get the app
WARNING: You are trying to view
                                    content from Ultimate-Guitar.com
                                    in an unauthorized application,
                                    which is prohibited.

                                    Please use an official Ultimate
                                    Guitar Tabs application for iPhone,
                                    iPad or Android to access legitimate
                                    chords, guitar, bass, and drum tabs
                                    from Ultimate-Guitar.com database.

                                    Type "ultimate guitar tabs" in Apple
                                    App Store's or Android Market's
                                    search to find the application.
Tuning B E A D F# B, Bass Parts B E A D F#

 Riff 1 (0:00)
  Gtrs. 1&2
||-----------------------------------------||
||-----------------------------------------||
||-----------------------------------------||
||-------7-----------3---------------------||
||-6-----5--6--4-----1--4--3~~--------4~---||
||-4--------4--2--------2--1~~--------2~---||
   .     . . .       . .




 Riff 2 (0:03)
  Gtrs. 1&2                               4x
||------------------------------------------||
||.--------------------------------*-------.||   * Finish Here
||-------------------------------------6~---||
||.------7-7---------3-3-------1~--2~--4~--.||    4th Time
||-6-----5-5-6-4-----1-1-4-3~--1~--2~--4~---||
||-4-444-----4-2-222-----2-1~---------------||
   . ... . . . . ... . . .




 Riff 3 (0:18)
  Gtrs. 1&2                                                                  3x
||-------------------------|---------------------------------------------------|
||-------------------------|.-------------------------------------------------.|
||-------------------------|---------------------------------------------------|
||----4/5-5//6-----8\\7----|.----4/5-5//6-----7//8--------4/5-5//6-----8\\7---.|
||-4--2/3-3//4--6--6\\5--0-|--4--2/3-3//4--6--5//6--0--4--2/3-3//4--6--6\\5----|
||-2------------4----------|--2------------4-----------2------------4----------|
   .            .             .            .           .            .

 Riff 3 (Cont.)
  Gtrs. 1&2
 |-------------------------||
 |-------------------------||
 |-------------------------||
 |----4/5-5//6-----7//8----||
 |-4--2/3-3//4--6--5//6--0-||
 |-2------------4----------||
   .            .
 Riff 4 (0:30)
  Gtr. 1
||-------------------------------------------------------------------------|
||-------------------------------------------------------------------------|
||-------------------------------------------------------------------------|
||-------------------------------------------------------------111222111---|
||-2-----------------------2--------------------------333------------------|
||-0-----------------------0-----------------------444---444333---------2~-|
|| .                       .                       .....................   |
||Gtr. 2                                                                   |
||-------------------------------------------------------------------------|
||-------------------------------------------------------------------------|
||-------------------------------------------------------------------------|
||----7--8--10----6--7--6-----7--8--10----6--7--6--------------111222111---|
||-2--5--6--8-----4--5--4--2--5--6--8-----4--5--4-----333------------------|
||-0-----------0-----------0-----------0-----------444---444333---------2~-|
   .           .           .           .           .....................


 Riff 5 (0:35)
  Gtrs. 1&2                                     Whole Line 3x
||---------------------------------|-------------------------|
||---------------------------------|.------.|
||---------------------------------|-------------------------|
||---7-9-10--6-7-6---7-9-10--6-7-6-|.-----------111222111---.|
||---5-6-8---4-5-4---5-6-8---4-5-4-|---333-------------------|
||-0-------0-------0-------0-------|444---444333---------222-|
   .       .       .       .        ........................

 Riff 5 (Cont.)
  Gtrs. 1&2
 |---------------------------------||
 |---------------------------------||
 |---------------------5-6---------||
 |---7-8-10--6-7-6---7-3-4-6-6-7\6-||
 |---5-6-8---4-5-4---5-----4-4-5\4-||
 |-0-------0-------0---------------||
   .       .       .




 Riff 6 (0:56)
  Gtrs. 1&2
||------------------------------------------------------------------|
||------------------------------------------------------------------|
||------------------------------------------------------------------|
||-----------443333----------443333----------443333----------443333-|
||-4444----55------4444----55------4444----55------4444----55-------|
||-----5544------------5544------------5544------------5544---------|
   ................................................................

 Riff 6 (Cont.)
  Gtrs. 1&2
 |------------------------------------------------------------------||
 |------------------------------------------------------------------||
 |------------------------------------------------------------------||
 |------------------------------------------------------------------||
 |-4444----5-4-3~--4444----554-3~--4444----5-4-3~--4444----554-3~---||
 |-----55443-2-1~------5544--2-1~------55443-2-1~------5544--2-1~---||
   ......... .     ...........     ......... .     ...........




 Riff 3 Underneath Solo(1:07)
 Riff 5A (1:19)
  Gtrs. 1&2                                     Whole Line 4x
||---------------------------------|-------------------------||
||---------------------------------|.------.||
||---------------------------------|-------------------------||
||---7-9-10--6-7-6---7-9-10--6-7-6-|.-----------111222111---.||
||---5-6-8---4-5-4---5-6-8---4-5-4-|---333-------------------||
||-0-------0-------0-------0-------|444---444333---------222-||
   .       .       .       .        ........................




Riff 6A (1:43)
  Gtrs. 1&2
||-------------------------------------------------|
||-------------------------------------------------|
||-------------------------------------------------|
||-----------443333----------443333----------------|
||-4444----55------4444----55------4444----5-4-3~--|
||-----5544------------5544------------55443-2-1~--|
   ......................................... .

 Riff 6A (Cont.)
  Gtrs. 1&2
 |----------------------------------------------||
 |----------------------------------------------||
 |----------------------------------------------||
 |----------------------------------------------||
 |-4444----554-3~--4444----5-4-3~--4444----554-3||
 |-----5544--2-1~------55443-2-1~------5544--2-1||
   ...........     ......... .     ...........




 Riff 7 (1:51)
   Gtr. 1
||----------------------------------|
||----------------------------------|
||----------------------------------|
||----------------------------------|
||-2--------------------------------|
||-0--------------------------------|
||                                  |
||Gtr. 2                            |
||----------------------------------|
||----------------------------------|
||----------------------------------|
||-----------------4---3------------|
||----------5/6~---2-5-1-4----------|
||-00000000-3/4~-----3---2-11111111-|
                     .   . ........

 Riff 7 (Cont.)
  Gtrs. 1&2
 |----------------------------------|------------------------------------||
 |.---------------.|.-----------------.||
 |----------------------------------|------------------------------------||
 |.----------------4---3-----------.|.----------------------------------.||
 |----------5/6~---2-5-1-4----------|-2-2-3-2-5--------22--11---3-3-3-3--||
 |-00001000-3/4~-----3---2-11111111-|-0-0-1-0-3-444444---3---2--1-1-1-1--||
                     .   . ........   . . . . .        ... ... . . . .
 Riff 8 (2:12)
  Gtrs. 1&2
||------------------------------------|
||------------------------------------|
||------------------------------------|
||------------------------------------|
||-6------6-4------2-3----------------|
||-4------4-2------0-1----------------|
|| .      . .      . .                |
||BASS*                               |
||----------------------3~--4~--------|
||----------------------3~--4~--------|
||----------------------ST--ST--------|
||------55-------11-----------------S-|
||-4-3h4--4-2-1h2--0-1~---------0-1-0-|

 * ST= Strum with fingers, S= Slap. Eric does it all on the highest frets
   of the neck, not down where the pickup is. I think this helps to mute
   the slap a bit. I watched him do it on the Trois-Riviers Metalfest DVD.

 Riff 8 (Cont.)
  Gtrs. 1&2
 |--------------------------------------||
 |.-------------------.||
 |--------------------------------------||
 |.----1~--2~-------------3~--4~--4\---.||
 |-3~--1~--2~----3----5~--3~--4~--4\----||
 |-1~----------0-1--0-3~-------------0--||
               . . .                 .




 Riff 2A (2:39)
  Gtrs. 1&2
||-------------------------||
||-------------------------||
||-------------------------||
||-------7-7---------3-3---||
||-6-----5-5-6-4-----1-1-4-||
||-4-444-----4-2-222-----2-||
   . ... . . . . ... . . .



 Riff 7A (2:41)
  Gtrs. 1&2
||--------------------------------------------------------------------|
||.-------------------------------------------------.|
||--------------------------------------------------------------------|
||.----------------4---3----------------------------4---3------------.|
||----------5/6~---2-5-1-4-------------------5/6~---2-5-1-4-----------|
||-00001000-3/4~-----3---2-11111111-00001000-3/4~-----3---2-11111111--|
                     .   . ........                   .   . ........
 Riff 7A (Cont.)
  Gtrs. 1&2
 |--------------------------------------------------------------------||
 |.-------------------------------------------------.||
 |--------------------------------------------------------------------||
 |.------------------------------------------------------------------.||
 |-2-2-3-2-5--------22--11---3-3-3-3-2-2-3-2-5--------22--11---33-33--||
 |-0-0-1-0-3-444444---3---2--1-1-1-1-0-0-1-0-3-444444---3---2--11-11--||
   . . . . .        ... ... . . . . . . . . .         ... ... .. ..
 Riff 9 (3:12)
  Gtrs. 1&2                       4x
||----------------------------------||
||.--------------------------------.||
||----------------------------------||
||.--7/8-10--6-7\6-6/7-6---108\7---.||
||---5/6-8---4-5\4-4/5-4---8-6\5----||
||-0-------0-------------0-------0--||
   .       .             .       .




 Riff 10 (3:24)
  Gtrs. 1&2                                         4x
||---------------------------------------------------||
||.-------------------------------------------------.||
||---------------------------------------------------||
||.------------111222111---------------111222111----.||
||----333---------------------333--------------------||
||-222---444333---------222222---444333---------222--||
   ................................................




 Riff 11 (3:35)
  Gtrs. 1&2                         3x
||------------------------------------|--------------------------------||
||.----------------------------------.|--------------------------------||
||-5555--4444--3333~------------------|-5555--4444--3333~--------------||
||.----6-----5-------3~--5-6-5-------.|-----6-----5-------3~--5-6-5----||
||-------------------1~--3-4-3-4-3~---|-------------------1~--3-4-3--3-||
||-----------------------------2-1~---|------------------------------1-||
       .     .           . . . .            .     .           . . . .



 Riff 2B (3:47)
  Gtrs. 1&2                              3x
||-----------------------------------------|--------------------------------------||
||.---------------------------------------.|--------------------------------------||
||-------------------------------------6~--|--------------------------------------||
||.------7-7---------3-3-------1~--2~--4~-.|-------7-7---------3-3------1--2------||
||-6-----5-5-6-4-----1-1-4-3~--1~--2~--4~--|-6-----5-5-6-4-----1-1-4-3--1--2--3-2-||
||-4-444-----4-2-222-----2-1~--------------|-4-444-----4-2-222-----2-1--------1-0-||
   . ... . . . . ... . . .                   . ... . . . . ... . . . . . . . .




 Riff 8A (4:02)
  Gtr.1
||-------------------------------------|
||-------------------------------------|
||-------------------------------------|
||-------------------------------------|
||-3----------2-3-2-2-5----------4~-2--|
||-1----------0-1-0-0-3----------2~-0--|
|| .          . . . . .                |
||BASS                                 |
||----3~--4~-------------5~--6~--------|
||----3~--4~-------------5~--6~--------|
||----ST--ST-------------ST--ST--------|
||-------------------------------------|
||-1----------0-1-0-0-3----------2\-0--|
 Riff 8A (Cont.)
  Gtrs. 1&2
 |--------------------------------------||
 |.-------------------.||
 |--------------------------------------||
 |.----1~--2~-------------3~--4~--4\---.||
 |-3~--1~--2~----3----5~--3~--4~--4\----||
 |-1~----------0-1--0-3~-------------0--||
               . . .                 .




 Riff 6A (4:21)
  Gtr. 1
||------------------------------------------------------------------|
||------------------------------------------------------------------|
||------------------------------------------------------------------|
||-----------443333----------443333----------443333----------443333-|
||-4444----55------4444----55------4444----55------4444----55-------|
||-----5544------------5544------------5544------------5544---------|
|| ................................................................ |
||Gtr. 2                                                            |
||------------------------------------------------------------------|
||------------------------------------------------------------------|
||------------------------------------------------------------------|
||-6-------------------------------6--------------------------------|
||-4---------4-3-------7-6---------4---------4-3-------7-6----------|
||-----------2-1-------5-4-------------------2-1-------5-4----------|
   .         . .       . .         .         . .       . .

 Riff 6A (Cont.)
  Gtrs. 1&2
 |------------------------------------------------------------------|
 |------------------------------------------------------------------|
 |------------------------------------------------------------------|
 |-----------443333----------443333----------443333----------443333-|
 |-4444----55------4444----55------4444----55------4444----55-------|
 |-----5544------------5544------------5544------------5544---------|
   ................................................................

 Riff 6A (Cont.)
  Gtrs. 1&2
 |----------------------------------------------------------------||
 |----------------------------------------------------------------||
 |----------------------------------------------------------------||
 |----------------------------------------------------------------||
 |-4444----5-4-3~--4444----554-3~--4444----5-4-3~--4444----5-4----||
 |-----55443-2-1~------5544--2-1~------55443-2-1~------55443-2----||
   ......... .     ...........     ......... .     ......... .


"THAT'S IT..... GO AHEAD AND RUN.... RUN HOME AND CRY TO MOMMA!"


End.
comments
We did not receive enough feedback on this tab! Please rate:
print report bad tab
1 2 3 4 5
I want to post or [tab]
guest
You may want to rate the tab now too:
select rating
Please do not post tabs as comments. Select "correction" instead!