Oops, an error
Loading. Please wait.

Pestilence That Walketh In Darkness Tab

ver1
ver1

Intro

Whole song

More versions @911Tabs.com
199 views 6 this week
no commentswrite comment
1 2 3 4 5
please rate
add to favorites launch autoscroll
font size
0
reset
Autoscroll
+/-
esc
set tempo
stop
Contributor
WARNING: You are trying to view
                                    content from Ultimate-Guitar.com
                                    in an unauthorized application,
                                    which is prohibited.

                                    Please use an official Ultimate
                                    Guitar Tabs application for iPhone,
                                    iPad or Android to access legitimate
                                    chords, guitar, bass, and drum tabs
                                    from Ultimate-Guitar.com database.

                                    Type "ultimate guitar tabs" in Apple
                                    App Store's or Android Market's
                                    search to find the application.
Tuning B E A D F# B
.    -   palm mute          / - slide up to
\    -   slide down to      ~ - vibrato
h    -   hammer on          b - Bend
p    -   pull off           Suffixes for bend
t    -   tap                f - full bend     h - half bend
ph   -   pinched harmonic   q - quarter bend t - tap bend
*    -   see comment        ^ - Hold bend     r release bend
x    -   Stuccatto          ~ - vibrato bend
,    -   slight palm mute   () - ghost note, sustained note
"    -   tremolo note       <> - Trill

nh – natural harmonic (lightly touch a string over the fret indicated
                       in TAB and pick)
d - downstroke
u - upstroke

Guitar 1 = left channel
Guitar 2 = right channel


RIFF 1 (0:00) Both gtr. / Clean
|-----------------------------------------------------|
|-----------------------------------------------------|
|----------------8----------8----------8--------------|
|-----6--------6----------6-----------------------7---|
|---4--------4-----------------------4----------5-----|
|-2---------------------7----------6----------3-------|

 -----------------------------------------||
 -----------------------------------------||
 ----------------8----------8-------------||
 -----6--------6-------------------7------||
 ---4--------4------------4--------5------||
 -2---------------------7----------5------||


RIFF 2 (0:16) Both gtr.
|-------------------------------------------------------------------------|
|-------------------------------------------------------------------------|
|-------------------8---8888-8---8888-8---8888-8---8888-8---8888----------|
|-6---6666-6---6666-6---6666-6---6666-6---6666-6---6666-6---6666-7---7777-|
|-4---4444-4---4444-4---4444-4---4444-4---4444-4---4444-4---4444-5---5555-|
|-2---2222-2---2222-------------------7---7777-7---7777-6---6666-5---5555-|

 -----------------------------------------------------------5555-----5555-|
 -----------------------------------------------------------5555-----5555-|
 -------------------8---8888-8---8888-8---8888-8---8888-----7777-----7777-|
 -6---6666-6---6666-6---6666-6---6666-6---6666-6---6666-7--------7--------|
 -4---4444-4---4444-4---4444-4---4444-4---4444-4---4444-5--------5--------|
 -2---2222-2---2222-------------------7---7777-7---7777-5--------5--------|
 -------------------------------------------------------------------------|
 -------------------------------------------------------------------------|
 -------------------8---8888-8---8888-8---8888-8---8888-8---8888----------|
 -6---6666-6---6666-6---6666-6---6666-6---6666-6---6666-6---6666-7---7777-|
 -4---4444-4---4444-4---4444-4---4444-4---4444-4---4444-4---4444-5---5555-|
 -2---2222-2---2222-------------------7---7777-7---7777-6---6666-5---5555-|

 -------------------------------------------------------------------------|
 -------------------------------------------------------------------------|
 -------------------8---8888-8---8888-8---8888-8---8888-------------------|
 -6---6666-6---6666-6---6666-6---6666-6---6666-6---6666-7---7777-7---7777-|
 -4---4444-4---4444-4---4444-4---4444-4---4444-4---4444-5---5555-5---5555-|
 -2---2222-2---2222-------------------7---7777-7---7777-7---7777-7---7777-|

 -------------------------------------------------------------------------|
 -------------------------------------------------------------------------|
 -------------------8---8888-8---8888-8---8888-8---8888-8---8888----------|
 -6---6666-6---6666-6---6666-6---6666-6---6666-6---6666-6---6666-7---7777-|
 -4---4444-4---4444-4---4444-4---4444-4---4444-4---4444-4---4444-5---5555-|
 -2---2222-2---2222-------------------7---7777-7---7777-6---6666-5---5555-|

 -----------------------------------------------------------5555-----5555-||
 -----------------------------------------------------------5555-----5555-||
 -------------------8---8888-8---8888-8---8888-8---8888-----7777-----7777-||
 -6---6666-6---6666-6---6666-6---6666-6---6666-6---6666-7--------7--------||
 -4---4444-4---4444-4---4444-4---4444-4---4444-4---4444-5--------5--------||
 -2---2222-2---2222-------------------7---7777-7---7777-5--------5--------||



RIFF 3 (0:56) Both Gtr.
|------------------------------------------------------------------|
|------------------------------------------------------------------|
|------------------------------------------------------------------|
|------------------------------------------------------------------|
|-6---6666-6---6666-6---6666-6---6666-6---6666-6---6666-6---6666---|
|-4---4444-4---4444-4---4444-4---4444-4---4444-4---4444-4---4444---|
                                 ....     ....     ....     ....

 ----------------------------------||
 ----------------------------------||
 ----------------------------------||
 ----------------------------------||
 -5---5555-5---5555-5---5555--6\---||
 -4---4444-4---4444-4---4444-------||
      ....     ....     ....


RIFF 4 (1:04) Both Gtr.
|----------------------------------------------------------------------------|
|----------------------------------------------------------------------------|
|----33----304033----------33----304033----------33----304033----------33----|
|-4-----4---------4-----4-----5---------4-----4-----4---------4-----4-----5--|
|-2-----2---------2--6--2-----3---------2--6--2-----2---------2--6--2-----3--|
|--------------------4---------------------4---------------------4-----------|

 -------------------------------------------------------------------|
 -------------------------------------------------------------------|
 -304033----------33----304033----------33----304033----------33----|
 --------4-----4-----4---------4-----4-----5---------4-----4-----4--|
 --------2--6--2-----2---------2--6--2-----3---------2--6--2-----2--|
 -----------4---------------------4---------------------4-----------|

 ---------------------------------------||
 ---------------------------------------||
 -304033----------33----304033----------||
 --------4-----4-----5------------------||
 --------2--6--2-----3---------9-9-6/10-||
 -----------4------------------7-7-4/-8-||
                               . .
RIFF 5 (1:17) Guitar one
|-----------------------------------------------------------|
|-------------10-\-\----------------------------------------|
|-----------8-----------------------------------------------|
|-------7-7----------------------1--------------------------|
|-6---------------------------33-1--4--4--22442266998810----|
|-4-------------------44225522------2--2--002200447766-8-0--|
        . . .                       . .                  .

              nh tremolo
|------------------bar-------------------------------------------------------|
|-------------9---/---\------------------------------------------------------|
|----------------------------------------------------------------------------|
|----------------------------------1-----------------------------------------|
|-656-----666-------------------33-1--4--4--22442266998-------9-8------4-----|
|-444-------------------44225522------2--2--00220044776-----0-7-6----0-2-----|
          ...                         . .

 ----------------------------------------------------------------------------|
 --------------10-\-\--------------------------------------------------------|
 -------------8--------------------------------------------------------------|
 ---------7-7---------------------1------------------------------------------|
 -656--------------------------33-1--4--4--22442266998810----656-----65556---|
 -444------------------44225522------2--2--002200447766-8-0--444-----44444---|
          . . .                      . .                  .

 ------------------------------------------------------||
 ------------------------------------------------------||
 ------------------------------------------------------||
 ------------1-----------------------------------------||
 ---------33-1--4--4--22442266998-------9-8------4-----||
 -44225522------2--2--00220044776-----0-7-6----022-----||
                . .

RIFF 5 (1:17) Guitar two
|-------------11-\-\----------------------------------------|
|-----------------------------------------------------------|
|-----------------------------------------------------------|
|-----------7--------------------1--------------------------|
|-6-----6-6-------------------33-1--4--4--22442266998810----|
|-4-------------------44225522------2--2--002200447766-8-0--|
        . . .                       . .                  .

              nh tremolo
|------------------bar-------------------------------------------------------|
|----------------------------------------------------------------------------|
|-------------9---/---\------------------------------------------------------|
|----------------------------------1-----------------------------------------|
|-656-----666-------------------33-1--4--4--22442266998-------9-8------4-----|
|-444-------------------44225522------2--2--00220044776-----0-7-6----0-2-----|
          ...                         . .

 ---------------10-\-\-------------------------------------------------------|
 ----------------------------------------------------------------------------|
 ----------------------------------------------------------------------------|
 -------------7-------------------1------------------------------------------|
 -656-----6-6------------------33-1--4--4--22442266998810----656-----65556---|
 -444------------------44225522------2--2--002200447766-8-0--444-----44444---|
          . . .                      . .                  .

 ------------------------------------------------------||
 ------------------------------------------------------||
 ------------------------------------------------------||
 ------------1-----------------------------------------||
 ---------33-1--4--4--22442266998-------9-8------4-----||
 -44225522------2--2--00220044776-----0-7-6----022-----||
                . .
RIFF 6 (1:39) Guitar one
|------------------------------------------------------------------|
|------------------------------------------------------------------|
|-----------5533--------------5533----------5533--77----------5533-|
|-2255337744----44--2255337744----2255337744----44--2255337744-----|
|-----------------55-----------------------------------------------|
|------------------------------------------------------------------|

 ----------------------------------------------------------------------||
 ----------------------------------------------------------------------||
 -----------5533--------------5533----------5533-----------------------||
 -2255337744----33--2255337744----2255337744-------6\------------4\3---||
 -----------------55----------------------------66-4\-2-4-2-8-10-------||
 -----------------------------------------------------0-2-0-6-8--------||
                                                      . . . . .

RIFF 6 (1:39) Guitar two
|----------------------------------------------------------------------|
|----------------------------------------------------------------------|
|-----------5533--66------------8866----------5533--77------------8866-|
|-2255337744----44--558866101077----2255337744----44--558866101077-----|
|----------------------------------------------------------------------|
|----------------------------------------------------------------------|

 -----------------------------------------------------------------------||
 -----------------------------------------------------------------------||
 -----------5533--77------------8866----------5533----------------------||
 -2255337744----44--558866101077----2255337744----44-6\-----------5\3---||
 ----------------------------------------------------4\-2-4-2-6\--3\1---||
 -------------------------------------------------------0-2-0---1-------||
                                                        . . .   .

RIFF 7 (1:52) Both Gtr.
|---------------------------------------|
|---------------------------------------|
|---------------------------------------|
|---------------------------------------|
|-2266447744998--4--4--2244226699881010-|
|-0044225522776--2--2--0022004477668-8--|
                 . .

 -------------------------------------------------------|
 -------------------------------------------------------|
 -------------------------------------------------------|
 -------------------------------------------------------|
 -2266447744998--4--4--22442266998-------9-8------4-----|
 -0044225522776--2--2--00220044776-----0-7-6----0-2-----|
                 . .

 ---------------------------------------|
 ---------------------------------------|
 ---------------------------------------|
 ---------------------------------------|
 -2266447744998--4--4--2244226699881010-|
 -0044225522776--2--2--0022004477668-8--|
                 . .

 --------------------------------------|
 --------------------------------------|
 --------------------------------------|
 --------------------------------------|
 -2266447744998--4--4--22442266998-----|
 -0044225522776--2--2--00220044776-----|
                 . .

 -----------------------------|------CLEAN-------||
 -----------------------------|------------------||
 -----------------------------|------------------||
 ----------------------------5|6---6666-6---6666-||
 ---9-8------4-----9-8-------3|4---4444-4---4444-||
 -0-7-6----0-2---0-7-6----0---|------------------||
RIFF 2 (2:11) Both gtr.
|-------------------------------------------------------|
|-------------------------------------------------------|
|-8---8888-8---8888-8---8888-8---8888-8---8888----------|
|-6---6666-6---6666-6---6666-6---6666-6---6666-7---7777-|
|-4---4444-4---4444-4---4444-4---4444-4---4444-5---5555-|
|-------------------7---7777-7---7777-6---6666-5---5555-|

 -----------------------------------------------------------5555-----5555-|
 -----------------------------------------------------------5555-----5555-|
 -------------------8---8888-8---8888-8---8888-8---8888-----7777-----7777-|
 -6---6666-6---6666-6---6666-6---6666-6---6666-6---6666-7--------7--------|
 -4---4444-4---4444-4---4444-4---4444-4---4444-4---4444-5--------5--------|
 -2---2222-2---2222-------------------7---7777-7---7777-5--------5--------|

 -------------------------------------------------------------------------|
 -------------------------------------------------------------------------|
 -------------------8---8888-8---8888-8---8888-8---8888-8---8888----------|
 -6---6666-6---6666-6---6666-6---6666-6---6666-6---6666-6---6666-7---7777-|
 -4---4444-4---4444-4---4444-4---4444-4---4444-4---4444-4---4444-5---5555-|
 -2---2222-2---2222-------------------7---7777-7---7777-6---6666-5---5555-|

 -------------------------------------------------------------------------|
 -------------------------------------------------------------------------|
 -------------------8---8888-8---8888-8---8888-8---8888-------------------|
 -6---6666-6---6666-6---6666-6---6666-6---6666-6---6666-7---7777-7---7777-|
 -4---4444-4---4444-4---4444-4---4444-4---4444-4---4444-5---5555-5---5555-|
 -2---2222-2---2222-------------------7---7777-7---7777-7---7777-7---7777-|

 -------------------------------------------------------------------------|
 -------------------------------------------------------------------------|
 -------------------8---8888-8---8888-8---8888-8---8888-8---8888----------|
 -6---6666-6---6666-6---6666-6---6666-6---6666-6---6666-6---6666-7---7777-|
 -4---4444-4---4444-4---4444-4---4444-4---4444-4---4444-4---4444-5---5555-|
 -2---2222-2---2222-------------------7---7777-7---7777-6---6666-5---5555-|

 -----------------------------------------------------------5555-----5555-||
 -----------------------------------------------------------5555-----5555-||
 -------------------8---8888-8---8888-8---8888-8---8888-----7777-----7777-||
 -6---6666-6---6666-6---6666-6---6666-6---6666-6---6666-7--------7--------||
 -4---4444-4---4444-4---4444-4---4444-4---4444-4---4444-5--------5--------||
 -2---2222-2---2222-------------------7---7777-7---7777-5--------5--------||




RIFF 8 (2:49) Both Gtr.
|-------------------------------------------------------------------------------|
|-------------------------------------------------------------------------------|
|-------------------------------------------------------------------------------|
|-------------------------------------------------------------------------------|
|3--33113--3--33113--3--33113--3--33113--3--33113--3--33113--3--33113--3--33113-|
|1------1--1------1--1------1--1------1--1------1--1------1--1------1--1------1-|
 .      . .       . .       . .       . .       . .       . .       . .       .

 --------------------|
 --------------------|
 --------------------|
 -4-----6------------|
 -2-----4-----6------|
 -------------4------|

--------------------------------------------------------------------------------|
--------------------------------------------------------------------------------|
--------------------------------------------------------------------------------|
--------------------------------------------------------------------------------|
-3--33113--3--33113--3--33113--3--33113--3--33113--3--33113--3--33113--3--33113-|
-1------1--1------1--1------1--1------1--1------1--1------1--1------1--1------1-|
 .      . .       . .       . .       . .       . .       . .       . .       .
 --------------------|
 --------------------|
 --------------------|
 -4-----6------------|
 -2-----4-----6------|
 -------------4------|

---------------------------------------------------------------------------------|
---------------------------------------------------------------------------------|
---------------------------------------------------------------------------------|
---------------------------------------------------------------------------------|
3--33113--3--33113--3--33113--3--33113--3--33113--3--33113--3--3--3--------------|
1------1--1------1--1------1--1------1--1------1--1------1--1--1--1--1-2-1-2-1-2-|
.      . .       . .       . .       . .       . .       . . . . . . . . . .

 ----------------------------------------------||
 ----------------------------------------------||
 ----------------------------------------------||
 -4--------6-----------------3-----------------||
 -2--------4--------6--------3-----------------||
 -------------------4------111-----------------||

END
comments
We did not receive enough feedback on this tab! Please rate:
print report bad tab
1 2 3 4 5
I want to post or [tab]
guest
You may want to rate the tab now too:
select rating
Please do not post tabs as comments. Select "correction" instead!