Oops, an error
Loading. Please wait.

Phobophile Tab

ver4
ver4

Whole song

More versions @911Tabs.com
314 views 18 this week
no commentswrite comment
1 2 3 4 5
excellent!
x 1
Autoscroll
+/-
esc
set tempo
stop
Contributor
WARNING: You are trying to view
                                    content from Ultimate-Guitar.com
                                    in an unauthorized application,
                                    which is prohibited.

                                    Please use an official Ultimate
                                    Guitar Tabs application for iPhone,
                                    iPad or Android to access legitimate
                                    chords, guitar, bass, and drum tabs
                                    from Ultimate-Guitar.com database.

                                    Type "ultimate guitar tabs" in Apple
                                    App Store's or Android Market's
                                    search to find the application.

Tuning B E A D F# B

 Piano Intro/Bass Intro (0:00 - 0:48)


 Riff 1 (0:48)
  Gtrs. 1&2                                                      6x
||------------------------------------------------------------------||
||.----------------------------------------------------------------.||
||------------------------------------------------------------------||
||.--------7777--------5555----------------------------------------.||
||-----7777----77778888----8-7-5-------55558888----7777888877775555-||
||-5555--------------------------8-6666--------6666-----------------||
                           . . . .


 Riff 2 (1:13)
   Gtr. 1
||------------------------------------------------------------------||
||------------------------------------------------------------------||
||------------------------------------------------------------------||
||-7~--------------8~------3~------------------------------3~-------||
||-7~--------------8~------3~------3~--------------4~------3~-------||
||-5~--------------6~------1~------5~--------------6~------1~-------||
||                                                                  ||
|| Gtr. 2                                                           ||
||------------------------------------------------------------------||
||------------------------------------------------------------------||
||------------------------------------------------------------------||
||-7~--------------8~------3~------7~--------------8~------3~-------||
||-7~--------------8~------3~------7~--------------8~------3~-------||
||-5~--------------6~------1~------5~--------------6~------1~-------||




 Riff 3 (1:17)
  Gtrs. 1&2
||------------------------------------------------------------------||
||------------------------------------------------------------------||
||------------------------------------------------------------------||
||------------------------------------------------------------------||
||-----55558888----55558888----5555----55558888----55558888----5555-||
||-6666--------6666--------6666----6666--------6666--------6666-----||
 Riff 3a (1:21)
   Gtr. 1
||------------------------------------------------------------------||
||------------------------------------------------------------------||
||------------------------------------------------------------------||
||------------------------------------------------------------------||
||-----55558888----55558888----5555----55558888----5555888855555555-||
||-6666--------6666--------6666----6666--------6666-----------------||
||                                                                  ||
|| Gtr. 2                                                           ||
||------------------------------------------------------------------||
||------------------------------------------------------------------||
||------------------------------------------------------------------||
||------------------------------------------------------------------||
||-----55558888----55558888----5555----55558888----55558888----5555-||
||-6666--------6666--------6666----6666--------6666--------6666-----||



 Riff 3b (1:24)
  Gtrs. 1&2
||------------------------------------------------------------------|
||------------------------------------------------------------------|
||------------------------------------------------------------------|
||------------------------------------------------------------------|
||-----55558888----55558888----5555----55558888----55558888----5555-|
||-6666--------6666--------6666----6666--------6666--------6666-----|

 Riff 3 (Cont.)
  Gtrs. 1&2
 |-------------------------------------------------------------------------||
 |-------------------------------------------------------------------------||
 |-------------------------------------------------------------------------||
 |-------------------------------------------------------------7-----------||
 |-----55558888----55558888----5555----55558888----55558888----5---8-------||
 |-6666--------6666--------6666----6666--------6666--------6666----6-------||
                                                                   .


 Riff 4 (1:31)
  Gtrs. 1&2
||-------------------------------------------------|
||.------------------------------------------------|
||-------------------------------------------------|
||.----7-/10-------7-/10-------7-/10-------7-/10---|
||-8---5-/-8---8---5-/-8---8---5-/-8---8---5-/-8---|
||-6-----------6-----------6-----------6-----------|
   .           .           .           .
 Riff 4 (Cont.)
  Gtrs. 1&2                                      2x
 |-------------------------------------------------||
 |------------------------------------------------.||
 |-------------------------------------------------||
 |-----7-/10-------7-/10-------7-/10-------7--10--.||
 |-8---5-/-8---8---5-/-8---8---5-/-8---8---5---8---||
 |-6-----------6-----------6-----------6-----------||
   .           .           .           .   .   .

 Riff 5 (1:40)
  Gtrs. 1&2
||------------------------------------------------------------------|
||------------------------------------------------------------------|
||------------------------------------------------------------------|
||------------------------------------------------------------------|
||-----55558888----55558888----5555----55558888----55558888----5555-|
||-6666--------6666--------6666----6666--------6666--------6666-----|
 Riff 5 (Cont.)
  Gtrs. 1&2
 |------------------------------------------------------------------||
 |------------------------------------------------------------------||
 |------------------------------------------------------------------||
 |------------------------------------------------------------------||
 |-----44447777----44447777----4444----44447777----44447777----4444-||
 |-5555--------5555--------5555----5555--------5555--------5555-----||




 Riff 5a (1:46)
   Gtr. 1
||------------------------------------------------------------------|
||------------------------------------------------------------------|
||------------------------------------------------------------------|
||------------------------------------------------------------------|
||-----55558888----55558888----5555----55558888----55558888----5555-|
||-6666--------6666--------6666----6666--------6666--------6666-----|
||                                                                  |
|| Gtr. 2                                                           |
||------------------------------------------------------------------|
||------------------------------------------------------------------|
||------------------------------------------------------------------|
||---------7777--------7777----------------7777--------7777---------|
||-55558888----55558888----5555888855558888----55558888----55558888-|
||------------------------------------------------------------------|

 Riff 5a (Cont.)
   Gtr. 1
 |------------------------------------------------------------------||
 |------------------------------------------------------------------||
 |------------------------------------------------------------------||
 |------------------------------------------------------------------||
 |-----44447777----44447777----4444----44447777----44447777----4444-||
 |-5555--------5555--------5555----5555--------5555--------5555-----||
 |                                                                  ||
 | Gtr. 2                                                           ||
 |------------------------------------------------------------------||
 |------------------------------------------------------------------||
 |------------------------------------------------------------------||
 |---------5555--------5555----------------5555--------5555---------||
 |-44447777----44447777----4444777744447777----44447777----44447777-||
 |------------------------------------------------------------------||



Riff 5b (1:52)
  Gtr. 1
||-----------------------------------------------------------------||
||-----------------------------------------------------------------||
||-----------------------------------------------------------------||
||-----7--10-------7--10-------7-------7--10-------7--10-------7---||
||-8---5---8---8---5---8---8---5---8---5---8---8---5---8---8---5---||
||-6-----------6-----------6-------6-----------6-----------6-------||
|| .   .   .   .   .   .   .   .   .   .   .   .   .   .   .   .   ||
||Gtr. 2                                                           ||
||-----------------------------------------------------------------||
||-----------------------------------------------------------------||
||-----------------------------------------------------------------||
||-------------------------------------7--10-------7--10-------7---||
||-----55558888----55558888----55558---5---8---8---5---8---8---5---||
||-6666--------6666--------6666----6-----------6-----------6-------||
                                   .   .   .   .   .   .   .   .
 Riff 5c (1:56)
   Gtr. 1
||------------------------------------------------------------------||
||------------------------------------------------------------------||
||------------------------------------------------------------------||
||------------------------------------------------------------------||
||-----44447777----44447777----4444----44447777----44447777----4444-||
||-5555--------5555--------5555----5555--------5555--------5555-----||
||                                                                  ||
|| Gtr. 2                                                           ||
||------------------------------------------------------------------||
||------------------------------------------------------------------||
||------------------------------------------------------------------||
||-----------------------------------------5555--------5555---------||
||-----44447777----44447777----444444447777----44447777----44447777-||
||-5555--------5555--------5555-------------------------------------||



 Riff 5 1x (1:59)



 Riff 5a 1x (2:05)


 Riff 6 (2:12)
  Gtrs. 1&2
||----------------------------------------------------------------|
||.---------------------------------------------------------------|
||----------------------------------------------------------------|
||.----------------7-8-9-8-9-8-10-----------------7-8-9-8-9-8-10--|
||-8---8---8---8------------------8---8---8---8-------------------|
||-6---6---6---6------------------6---6---6---6-------------------|
   .   .   .   .                  .   .   .   .
 Riff 6 (Cont.)
  Gtrs. 1&2
 |----------------------------------------------------------------|
 |----------------------------------------------------------------|
 |----------------------------------------------------------------|
 |-----------------7-8-9-8-9-8-10-----------------7-8-9-8-9-8-10--|
 |-7---7---7---7------------------7---7---7---7-------------------|
 |-5---5---5---5------------------5---5---5---5-------------------|
   .   .   .   .                  .   .   .   .

 Riff 6 (Cont.)
   Gtr. 1
 |----------------------------------------------------------------|
 |----------------------------------------------------------------|
 |----------------------------------------------------------------|
 |-----------------7-8-9-8-9-8-10-----------------7-8-9-8-9-8-10--|
 |-8---8---8---8------------------8---8---8---8-------------------|
 |-6---6---6---6------------------6---6---6---6-------------------|
 | .   .   .   .                  .   .   .   .                   |
 | Gtr. 2                                                         |
 |----------------------------------------------------------------|
 |----------------------------------------------------------------|
 |-----------------7-8-9-8-9-8-10-----------------7-8-9-8-9-8-10--|
 |----------------------------------------------------------------|
 |-8---8---8---8------------------8---8---8---8-------------------|
 |-6---6---6---6------------------6---6---6---6-------------------|
   .   .   .   .                  .   .   .   .
 Riff 6 (Cont.)
  Gtrs. 1&2                                                     x2
 |----------------------------------------------------------------||
 |---------------------------------------------------------------.||
 |----------------------------------------------------------------||
 |-----------------7-8-9-8-9-8-10-----------------7-8-9-8-9-8-10-.||
 |-7---7---7---7------------------7---7---7---7-------------------||
 |-5---5---5---5------------------5---5---5---5-------------------||
   .   .   .   .                  .   .   .   .
 Riff 5b 1x (2:36)



 Riff 7 (2:40)
   Gtr. 1
||-----------------------------------------------------------------||
||-----------------------------------------------------------------||
||---------------------------------------------------------3-------||
||-4-----------------------8-------4-----------------------1---4---||
||-2-----------------------6-------2---------------------------2---||
||-----------------------------------------------------------------||
||                                                             .   ||
|| Gtr. 2                                                          ||
||-----------------------------------------------------------------||
||-----------------------------------------------------------------||
||-------------------------3-------------------------------3-------||
||-4-----------3-------3---1---4---4-----------3-------3---1---4---||
||-2---5---4---1---5---1-------2---2---5---4---1---5---1-------2---||
||-----3---2-------3-------------------3---2-------3---------------||
       .   .       .   .       .       .   .       .   .       .



 Riff 7a (2:44)
  Gtrs. 1&2                                                     2x
||-----------------------------------------------------------------||
||.---------------------------------------------------------------.||
||-------------------------3-------------------------------3-------||
||.4-----------3-------3---1---4---4-----------3-------3---1---4--.||
||-2---5---4---1---5---1-------2---2---5---4---1---5---1-------2---||
||-----3---2-------3-------------------3---2-------3---------------||
       .   .       .   .       .       .   .       .   .       .



 Riff 7b (2:52)
  Gtrs. 1&2                                                     2x
||-----------------------------------------------------------------||
||.---------------------------------------------------------------.||
||-------------------------3-------------------------------3-------||
||.4-----------3-------3---1---4---4-----------3-------3---1---4--.||
||-2---5---4---1---5---1-------2---2---5---4---1---5---1-------2---||
||-----3---2-------3-------------------3---2-------3---------------||
                               .                               .



 Riff 1 4x (3:01)



 Riff 2a (3:17 - w/Solo)
  Gtrs. 1&2
||------------------------------------------------------------------||
||------------------------------------------------------------------||
||------------------------------------------------------------------||
||-7~--------------8~------3~------7~--------------8~------3~-------||
||-7~--------------8~------3~------7~--------------8~------3~-------||
||-5~--------------6~------1~------5~--------------6~------1~-------||
 Riff 8 (3:22 - w/Solo)
  Gtrs. 1&2
||------------------------------------------------------------------|
||------------------------------------------------------------------|
||------------------------------------------------------------------|
||-7~---------------------------------------------------------------|
||-7~--------------8---10--8---7---7~----------------------55557777-|
||-5~--------------6--(6)-(6)-(6)--8~--------------44448888---------|

 Riff 8 (Cont.)
  Gtrs. 1&2
 |------------------------------------------------------------------||
 |------------------------------------------------------------------||
 |------------------------------------------------------------------||
 |-7~--------------5-------7----------------------------------------||
 |-7~--------------5-------7-------8(8)--------8\7-7~---------------||
 |-5~--------------3-------5-------6/7-------------8~---------------||




 Riff 9 (3:30 - w/Solo)
  Gtrs. 1&2
||------------------------------------------------------------------|
||------------------------------------------------------------------|
||---------------------------------------------------------22221111-|
||-------------2222----------------------------222233332222---------|
||-000033332222--------------------000033332222---------------------|
||-----------------4444444411111111---------------------------------|

 Riff 9 (Cont.)
  Gtrs. 1&2
 |------------------------------------------------------------------||
 |------------------------------------------------------------------||
 |---------------------------------------------------------22221111-||
 |-------------2222----------------------------222233332222---------||
 |-000033332222--------------------000033332222---------------------||
 |-----------------4444444411111111---------------------------------||



 Riff 8 1x (3:38 - w/Solo)



 Riff 9 1x (3:47)



 Riff 7a 4x (3:55)



 Riff 10a (4:12)
   Gtr. 1
||-----------------------------------------------------------------------------||
||-----------------------------------------------------------------------------||
||-----------------------------------------------------------------------------||
||-2-----------------------------2---------------------------------------------||
||-0-----------------------------0----8-7-5-------55558888----7777888877775555-||
||------------------------------------------8-6666--------6666-----------------||
||                               .    . . . .                                  ||
|| Gtr. 2                                                                      ||
||--------------12h17p12-------------------------------------------------------||
||------------13--------13-----------------------------------------------------||
||----------14------------14---------------------------------------------------||
||-14-----14----------------14-------------------------------------------------||
||---12h15--------------------15p12---8-7-5-------55558888----7777888877775555-||
||------------------------------------------8-6666--------6666-----------------||
                                      . . . .
 Riff 1 3x (4:16)



 Riff 9a (4:28)
   Gtr. 1
||------------------------------------------------------------------|
||------------------------------------------------------------------|
||---------------------------------------------------------22221111-|
||-------------2222----------------------------222233332222---------|
||-000033332222----6-------3-------000033332222---------------------|
||-----------------4-------1----------------------------------------|
||                                                                  |
|| Gtr. 2                                                           |
||------------------------------------------------------------------|
||---------------------------------------------------------11110000-|
||---------------------------------------------111122221111---------|
||-------------2222-------------------------------------------------|
||-000033332222----6-------3-------000033332222---------------------|
||-----------------4-------1----------------------------------------|

 Riff 9 (Cont.)
  Gtrs. 1&2
 |-----------------------------------||
 |-----------------------------------||
 |-----------------------------------||
 |-------------2222------------------||
 |-000033332222----6-----2-3---------||
 |-----------------4-----0-1---------||
                         . .

End.
comments
We did not receive enough feedback on this tab! Please rate:
print report bad tab
1 2 3 4 5
I want to post or [tab]
guest
You may want to rate the tab now too:
select rating
Please do not post tabs as comments. Select "correction" instead!