Oops, an error
Loading. Please wait.

White Worms Tab

88 views 1 this week
no commentswrite comment
1 2 3 4 5
please rate
Autoscroll
+/-
esc
set tempo
stop
Contributor
Hey! There's an official Ultimate Guitar app which is ideal
for learning songs when you're away from computer. Get the app
WARNING: You are trying to view
                                    content from Ultimate-Guitar.com
                                    in an unauthorized application,
                                    which is prohibited.

                                    Please use an official Ultimate
                                    Guitar Tabs application for iPhone,
                                    iPad or Android to access legitimate
                                    chords, guitar, bass, and drum tabs
                                    from Ultimate-Guitar.com database.

                                    Type "ultimate guitar tabs" in Apple
                                    App Store's or Android Market's
                                    search to find the application.

Tuning B E A D F# B

Riff 1 (0:00)
   Gtr.1                                              This Section 3x
||--------------------------------|----------------------------------||
||--------------------------------|.--------------------------------.||
||--------------------------------|----------------------------------||
||---------5-4-4-5---------5-4
Riff 3 (Cont.)
  Gtr.1&2                                                               2x
 |-------------------------------------------------------------------------||
 |.-----------------------------------------------------------------------.||
 |-------------------------------------------------------------------------||
 |.--3---------------3-----7-----------------3---------------3-----4-5----.||
 |-2-1-4-5-6-2-3-4-2-1-4-5-5-6/7-7h8p7h8p7-2-1-4-5-6-2-3-4-2-1-4-5-2-3-4-3-||
 |-0---2-3-4-0-1-2-0---2-3---4/5-----------0---2-3-4-0-1-2-0---2-3-----2-1-||




 Riff 4 (0:39)
  Gtr.1 Only, except first note
||-------------------------||
||-------------------------||
||-------------------------||
||-------------------------||
||-2--2-2--2--2-3--2-1~~~~-||
||-4--4-4--4--4-4--3-2~~~~-||




 Riff 3 [2nd line only] 1x (0:41)




 Riff 5 (0:47)
  Gtrs.1&2
||-----------------------------------------------------------------||
||-----------------------------------------------------------------||
||-----------------------------------------------------------------||
||---------5-4-4-5---------5-4-4-5---------5-4-4-5---------5-4-4-5-||
||-7-4-5-6-3-2---3-7-4-5-6-3-2---3-7-4-5-6-3-2---3-7-4-5-6-3-2---3-||
||-5-2-3-4---------5-2-3-4---------5-2-3-4---------5-2-3-4---------||




 Riff 3 [2nd line only] 1x (0:53)




 Riff 4 2x, 2nd time both guitars (0:59)




 Riff 6 (1:03)
   Gtr.1
||-------------------------------------------------------------------||
||-------------------------------------------------------------------||
||-------------------------------------------------------------------||
||-------------------------------------------------------------------||
||-33333333-2-2-2-2-33333333-2-2-2-2-33333333-2-2-2-2-33333333-2-2---||
||-00000000-0-0-0-0-00000000-0-0-0-0-00000000-0-0-0-0-00000000-0-0---||
||                                                                   ||
||Gtr.2                                                              ||
||-------------------------------------------------------------------||
||-------------------------------------------------------------------||
||-------------------------------------------------------------------||
||-------------------------------------------------------------------||
||-----7654-------------7654-------------7654-------------7654-2-2---||
||-5432-----0-0-0-0-5432-----0-0-0-0-5432-----0-0-0-0-5432-----0-0---||
 Riff 7 (1:08)
   Gtr.1
||-----------------------------------------------------------------|
||.----------------------------------------------------------------|
||-----------------------------------------------------------------|
||.----------6---3-------3---3---3-----------6---3-------3---3---3-|
||---------2-4---1-------1---1---1---------2-4---1-------1---1---1-|
||-000000000---0---00000---0---0---000000000---0---00000---0---0---|
||                                                                 |
||Gtr.2                                                            |
||-----------------------------------------------------------------|
||.----------------------------------------------------------------|
||-----------------------------------------------------------------|
||.----------------------------------------------------------------|
||-333333332-2---2-33333-8---8---8-333333332-2---2-------8---8---8-|
||-000000000-0---0-00000-6-0-6-0-6-000000000-0---0-00000-6-0-6-0-6-|

 Riff 7 (Cont.)
  Gtrs.1&2                                            This Section 3x
 |---------------------------------|---------------------------------|
 |--------------------------------.|.-------------------------------.|
 |---------------------------------|---------------------------------|
 |---7\4\3---5\4\3---5\4\3-6\5/6/7.|.--7\4\3---5\4\3---5\4\3-6\5/6/7.|
 |-2-3\2\1---3\2\1---3\2\1-4\3/4/5-|-2-3\2\1---3\2\1---3\2\1-4\3/4/5-|
 |-0-------0-------0---------------|-0-------0-------0---------------|




 Riff 8 (1:30)
   Gtr.1                                                         4x
||-----------------------------------------------------------------||
||.---------------------------------------------------------------.||
||-----------------------------------------------------------------||
||.----------6---3-------3---3---3-----------6---3-------3---3---3.||
||---------2-4---1-------1---1---1---------2-4---1-------1---1---1-||
||-000000000---0---00000---0---0---000000000---0---00000---0---0---||
||                                                                  ||
||Gtr.2                                                             ||
||-----------------------------------------------------------------||
||.---------------------------------------------------------------.||
||-----------------------------------------------------------------||
||.---------------------------------------------------------------.||
||-333333332-2---2-33333-8---8---8-333333332-2---2-------8---8---8-||
||-000000000-0---0-00000-6-0-6-0-6-000000000-0---0-00000-6-0-6-0-6-||




 Riff 9 (1:42)
   Gtr.1
||-44444444---------------44444444-------------------------|
||-44444444---------------44444444-------------------------|
||---------------------------------------------------------|
||---------------------------------------------------------|
||---------44444444-8---5~--------333333332222222222222222-|
||---------55555555-6-0-3~--------444444443333333333333333-|
||                                                         |
||Gtr.2                                                    |
||------------------------44444444-------------------------|
||------------------------44444444-------------------------|
||---------------------------------------------------------|
||---------------------------------------------------------|
||-6----------------8---5~--------333333332222222222222222-|
||-4----------------6-0-3~--------444444443333333333333333-|
 Riff 9 (Cont.)
   Gtr. 1
 |-44444444------------------------44444444-------------------------|
 |-44444444------------------------44444444-------------------------|
 |------------------------------------------------------------------|
 |-------------------------44444444---------------------------------|
 |---------3333333322222222----------------333333332222222222222222-|
 |---------4444444433333333----------------444444443333333333333333-|
 |                                                                  |
 | Gtr. 2                                                           |
 |-44444444------------------------44444444-------------------------|
 |-44444444------------------------44444444-------------------------|
 |------------------------------------------------------------------|
 |------------------------------------------------------------------|
 |---------333333332222222211111111--------333333332222222222222222-|
 |---------444444443333333322222222--------444444443333333333333333-|

 Riff 9 (Cont.)
   Gtr. 1
 |-44444444-------------------------||
 |-44444444-------------------------||
 |----------------------------------||
 |-------------------------44444444-||
 |---------3333333322222222---------||
 |---------4444444433333333---------||
 |                                  ||
 | Gtr. 2                           ||
 |-44444444-------------------------||
 |-44444444-------------------------||
 |----------------------------------||
 |----------------------------------||
 |---------333333332222222211111111-||
 |---------444444443333333322222222-||




 Riff 10 (1:51)
   Gtrs. 1&2
||--------------------------------------------------------|
||--------------------------------------------------------|
||--------------------------------------------------------|
||-----------777766668\-----------------777766668\--------|
||-6-6-6-6-7------------3--3-3--4-6-6-7------------3--3-3-|
||-4-4-4-4-5------------1--1-1--2-4-4-5------------1--1-1-|

 Riff 10 (Cont.)
   Gtr. 1
 |------------------------------------------------------|
 |------------------------------------------------------|
 |------------------------------------------------------|
 |---------7-7-6-6-8\-----------------7-7-6-6-8\--------|
 |-4-6-6-7---------6\-3--3-3--4-6-6-7---------6\-3--3-3-|
 |-2-4-4-5------------1--1-1--2-4-4-5------------1--1-1-|
 |                                                      |
 | Gtr. 2                                               |
 |------------------------------------------------------|
 |------------------------------------------------------|
 |---------66665555-------------------66665555----------|
 |-----------------8\-------------------------8\--------|
 |-4-6-6-7---------6\-3--3-3--4-6-6-7---------6\-3--3-3-|
 |-2-4-4-5------------1--1-1--2-4-4-5------------1--1-1-|

 Riff 10 (Cont.)
   Gtrs. 1&2              3x
 |---------------------------|-------------------------||
 |.-------------------------.|-------------------------||
 |---------------------------|-------------------------||
 |.--------777766668\-------.|---------777766668\------||
 |-4-6-6-7------------3--3-3-|-4-6-6-7------------3--3-||
 |-2-4-4-5------------1--1-1-|-2-4-4-5------------1--1-||
 Riff 11 (2:08)
   Gtrs. 1&2                                              2x
||--44444444----44444444-----44444444----|----Play-Twice----||
||.-44444444----44444444-----44444444----|-----2nd-Time----.||
||---------------------------------------|------------------||
||.--------------------------------------|----3/6-----4h5h7.||
||----------6-5---------6-5----------6-5-|------------------||
||----------4-3---------4-3----------4-3-|1-2-----2-3-------||




 Riff 9A (2:17)
   Gtr.1
||-44444444---------------44444444-------------------------|
||-44444444---------------44444444-------------------------|
||---------------------------------------------------------|
||---------------------------------------------------------|
||---------44444444-8---5~--------333333332222222222222222-|
||---------55555555-6-0-3~--------444444443333333333333333-|
||                                                         |
||Gtr.2                                                    |
||------------------------44444444-------------------------|
||------------------------44444444-------------------------|
||---------------------------------------------------------|
||---------------------------------------------------------|
||-6----------------8---5~--------333333332222222222222222-|
||-4----------------6-0-3~--------444444443333333333333333-|

 Riff 9A (Cont.)
   Gtr. 1                                                          3x
 |--44444444------------------------44444444-------------------------|
 |.-44444444------------------------44444444------------------------.|
 |-------------------------------------------------------------------|
 |.-------------------------44444444--------------------------------.|
 |----------3333333322222222----------------333333332222222222222222-|
 |----------4444444433333333----------------444444443333333333333333-|
 |                                                                    |
 | Gtr. 2                                                             |
 |--44444444------------------------44444444-------------------------|
 |.-44444444------------------------44444444------------------------.|
 |-------------------------------------------------------------------|
 |.-----------------------------------------------------------------.|
 |----------333333332222222211111111--------333333332222222222222222-|
 |----------444444443333333322222222--------444444443333333333333333-|

 Riff 9A (Cont.)
   Gtr. 1
 |-44444444-------------------------||
 |-44444444-------------------------||
 |----------------------------------||
 |---------66666666--------44444444-||
 |-----------------22222222---------||
 |----------------------------------||
 |                                  ||
 | Gtr. 2                           ||
 |-44444444-------------------------||
 |-44444444-------------------------||
 |----------------------------------||
 |----------------------------------||
 |---------333333332222222211111111-||
 |---------444444443333333322222222-||
 Riff 7A (2:34)
  Gtrs.1&2                                                         2x
||-------------------------------------------------------------------|
||.-----------------------------------------------------------------.|
||-------------------------------------------------------------------|
||.--7\4\3---5\4\3---5\4\3-6\5/6/7-----7\4\3---5\4\3---5\4\3-6\5/6/7.|
||-2-3\2\1---3\2\1---3\2\1-4\3/4/5---2-3\2\1---3\2\1---3\2\1-4\3/4/5-|
||-0-------0-------0-----------------0-------0-------0---------------|

 Riff 7A (Cont.)
   Gtr.1                                                         2x
 |-----------------------------------------------------------------||
 |.----------------------------------------------------------------||
 |-----------------------------------------------------------------||
 |.----------6---3-------3---3---3-----------6---3-------3---3---3-||
 |---------2-4---1-------1---1---1---------2-4---1-------1---1---1-||
 |-000000000---0---00000---0---0---000000000---0---00000---0---0---||
 |                                                                  ||
 |Gtr.2                                                             ||
 |-----------------------------------------------------------------||
 |.----------------------------------------------------------------||
 |-----------------------------------------------------------------||
 |.----------------------------------------------------------------||
 |-333333332-2---2-33333-8---8---8-333333332-2---2-------8---8---8-||
 |-000000000-0---0-00000-6-0-6-0-6-000000000-0---0-00000-6-0-6-0-6-||



 Riff 4 (2:52)



 Riff 4A (2:54)
   Gtrs. 1&2
||-----------------------------------------------------------------|
||-----------------------------------------------------------------|
||-----------------------------------------------------------------|
||-----------------------------------------------------------------|
||-2-2-2-2---2---2-3-3-2-1---1---1-2-2-2-2---2---2-3-3-2-1---1---1-|
||-4-4-4-4-4-4-4-4-4-4-3-2-2-2-2-2-4-4-4-4-4-4-4-4-4-4-3-2-2-2-2-2-|

   Gtr.1
 |----------------------------------------------------|--------------------||
 |----------------------------------------------------|--------------------||
 |----------------------------------------------------|--------------------||
 |----------------------------------------------------|--------6h7p6h7/8-7-||
 |-33333333-2-2-2-2-33333333-2-2-2-2-33333333-2-2-2-2-|5-----5-----------5-||
 |-00000000-0-0-0-0-00000000-0-0-0-0-00000000-0-0-0-0-|--0-1---------------||
 |                                                                         ||
 |Gtr.2                                                                    ||
 |----------------------------------------------------|--------------------||
 |----------------------------------------------------|--------------------||
 |----------------------------------------------------|--------------------||
 |----------------------------------------------------|--------6h7p6h7/8-7-||
 |-----7654-------------7654-------------7654---------|5-----5-----------5-||
 |-5432-----0-0-0-0-5432-----0-0-0-0-5432-----0-0-0-0-|--0-1---------------||




 Riff 3 [2nd line only] 3x (3:03)
 Riff 11A (3:20)
   Gtrs. 1&2                                              4x
||--44444444----44444444-----44444444----|----Play-Twice----|
||.-44444444----44444444-----44444444----|-----4th-Time----.|
||---------------------------------------|------------------|
||.--------------------------------------|----3/6-----4h5h7.|
||----------6-5---------6-5----------6-5-|------------------|
||----------4-3---------4-3----------4-3-|1-2-----2-3-------|

   Riff 11A (Cont.)
    Gtr. 1
 |-------------------------------------------------||
 |-------------------------------------------------||
 |-------------------------------------------------||
 |-----3h4h6-----4h5h7-4h5h7-----3h4h6-3h4h6-------||
 |-------------------------------------------4-5---||
 |-1-2-------2-3-------------1-2-------------2-3---||
 |                                                 ||
 | Gtr. 2                                          ||
 |-------------------------------------------------||
 |-------------------------------------------------||
 |---------------3h4h6-3h4h6-----2h3h5-2h3h5-------||
 |-----3h4h6---------------------------------------||
 |-3-4-------4-5-------------3-4-------------4-5---||
 |-------------------------------------------2-3---||

End.
comments
We did not receive enough feedback on this tab! Please rate:
print report bad tab
1 2 3 4 5
I want to post or [tab]
guest
You may want to rate the tab now too:
select rating
Please do not post tabs as comments. Select "correction" instead!