Oops, an error
Loading. Please wait.

A Letter To Elise Tab

by Cure
ver1
ver1

Whole song

Interactive

More versions @911Tabs.com
28,349 views 45 this week
2 commentsread comments
1 2 3 4 5
excellent!
x 8
Autoscroll
+/-
esc
set tempo
stop
Contributor
Hey! There's an official Ultimate Guitar app which is ideal
for learning songs when you're away from computer. Get the app
WARNING: You are trying to view
                                    content from Ultimate-Guitar.com
                                    in an unauthorized application,
                                    which is prohibited.

                                    Please use an official Ultimate
                                    Guitar Tabs application for iPhone,
                                    iPad or Android to access legitimate
                                    chords, guitar, bass, and drum tabs
                                    from Ultimate-Guitar.com database.

                                    Type "ultimate guitar tabs" in Apple
                                    App Store's or Android Market's
                                    search to find the application.
Band - The Cure
Song - A Letter To Elise

Tuning: Standard
Key:
/=slide
h=hammeron
b(x)r=bend till it sounds like fret x and then release

(Guitar 1) - Acoustic
(Guitar 2) - Electric
(Guitar 3) - Xylophone sound

(Bass)
G|---------------------------------|----------------------------------|
D|---------------------------4-4-4-|--2--2-2-2---2-2--2-2-2-2/7-7-7---|
A|---0--0-0-0--0-0--0-0-0-0--------|----------------------------------|
E|---------------------------------|----------------------------------|

G|---------------------------------|----------------------------------|
D|---------------------------------|----------------------------------|
A|--4---4-4-4---4-4--4-4-4-4-4-7-7-|--0--0-0-0---0-0---0-0-0-0-0--4-4-|
E|---------------------------------|----------------------------------|

                               (Guitar 1)
e|---------------------------------|----------------------------------|
B|---------------------------------|----------------------------------|
G|---------------------------------|----------------------------------|
D|---------------------------------|----------------------------------|
A|---2-4-4-2-4-4-2-4---2-4---------|----------------%-----------------|
E|---------------------------------|----------------------------------|

e|---------------------------------|----------------------------------|
B|---------------------------------|----------------------------------|
G|---------------------------------|----------------------------------|
D|---------------------------------|----------------------------------|
A|---2-4-4-2-4-4-2-4---2-4---2-4-4-|----5--5-5-5--5-5--4--2--0--2-----|
E|---------------------------------|----------------------------------|


			       
			       (Guitar 1)
e|---------------------------------|----------------------------------|
B|---------------------------------|----------------------------------|
G|---------------------------------|----------------------------------|
D|---------------------------------|----------------------------------|
A|---2-4-4-2-4-4-2-4---2-4---------|----------------%-----------------|
E|---------------------------------|----------------------------------|
 |                                                                    |
 |                             (Guitar 2)                             |
e|--5------------------5-----------|----------------------------------|
B|-----------5------5--------------|----5------------5--------5-------|
G|--------4------4-----------------|------------4--4-----4--4---------|
D|---------------------------------|----------------------------------|
A|---------------------------------|----------------------------------|
E|---------------------------------|----------------------------------|
 |                                                                    |
 |                             (Guitar 3)                             |
e|--0-0-0-0------------------------|----------------------------------|
B|----------2--2-2--0-2--2---------|----------------%-----------------|
G|---------------------------------|----------------------------------|
D|---------------------------------|----------------------------------|
A|---------------------------------|----------------------------------|
E|---------------------------------|----------------------------------|\
                                                                        \
                                                                         | x2
			       (Guitar 1)                            /
e|---------------------------------|----------------------------------|/
B|---------------------------------|----------------------------------|
G|---------------------------------|----------------------------------|
D|---------------------------------|----------------------------------|
A|---2-4-4-2-4-4-2-4---2-4---2-4-4-|----5--5-5-5--5-5--4--2--0--2-----|
E|---------------------------------|----------------------------------|
 |                                                                    |
 |                             (Guitar 2)                             |
e|-----2------------------2--------|----------------------------------|
B|--------5-------5-----5----------|----5--5-------5-------5-----3----|
G|-----------4--4-----4------------|----------4--4----4--4----4-------|
D|---------------------------------|----------------------------------|
A|---------------------------------|----------------------------------|
E|---------------------------------|----------------------------------|
 |                                                                    |
 |                             (Guitar 3)                             |
e|---0-0-0-0-----------------------|----------------------------------|
B|-----------2--2-2--0-2--2--0-2---|---3---3-3-3--3-3-3-2-----------0-|
G|---------------------------------|-------------------------2---2----|
D|---------------------------------|----------------------------------|
A|---------------------------------|----------------------------------|
E|---------------------------------|----------------------------------|

(Bass)
G|---------------------------------|----------------------------------|
D|-----------------------------4-4-|--6--6-6-6----6-6---6-6-6-6-6-7---|
A|--0--0-0-0---0-0--0-0-0-0-0------|----------------------------------|
E|---------------------------------|----------------------------------|
  
G|---------------------------------|----------------------------------|
D|--4--4-4-4---4-4--4-4-4-4-4-7----|---0--0-0-0---0-0--0-0-0-0-0-4-4--|
A|---------------------------------|----------------------------------|
E|---------------------------------|----------------------------------|

(Bass)
G|---------------------------------|----------------------------------|
D|--2--2-2-2--2-2---2-2-2-2/7-7-7--|--4--4-4-4--4-4--4-4-4-4-4-7-7----|
A|---------------------------------|----------------------------------|
E|---------------------------------|----------------------------------|\
                                                                        \
			       (Guitar 2)                            | x3
e|---------------------------------|----------------------------------| /
B|---------------------------------|----------------------------------|/
G|---4----------4-4----4----4------|---4/6------2-2-------------------|
D|---------------------------------|------------------4---4---4-4-----|
A|---------------------------------|----------------------------------|
E|---------------------------------|----------------------------------|

G|---------------------------------|----------------------------------|
D|--5--5-5-5---5--5--5-5-5-5-5-5-5-|--4--4-4-4---4-4---4-4-4-4-4-7-7--|
A|---------------------------------|----------------------------------|
E|---------------------------------|----------------------------------|\
                                                                        \
			       (Guitar 2)                            | x4
e|---------------------------------|----------------------------------| /
B|---------------------------------|----------------------------------|/
G|------------2----2---2-----2-----|------------2---------2-----2-----|
D|------5--5-----5--------5--------|------4--4------4--4------4-------|
A|---------------------------------|----------------------------------|
E|---------------------------------|----------------------------------|


(Bass)
G|---------------------------------|----------------------------------|
D|-----------------------------4-4-|--6--6-6-6----6-6---6-6-6-6-6-7---|
A|--0--0-0-0---0-0--0-0-0-0-0------|----------------------------------|
E|---------------------------------|----------------------------------|
  
G|---------------------------------|----------------------------------|
D|--4--4-4-4---4-4--4-4-4-4-4-7----|---0--0-0-0---0-0--0-0-0-0-0-4-4--|
A|---------------------------------|----------------------------------|
E|---------------------------------|----------------------------------|

			       (Guitar 2)
e|---------------------------------|----------------------------------|
B|---------------------------------|----------------------------------|
G|---6/7--7--6-7--9-----9-----7-6--|----6/7--7--6-7--7------9--9------|
D|-----9--9-------9-----9----------|------------------------9--9------|
A|---------------------------------|----------------------------------|
E|---------------------------------|----------------------------------|

e|--------------------------------------------------------------------|
B|--------------------------------------------------------------------|
G|6/7-7/9-9-9-9/11-11-11-11/13-13-13-13/14-14-14-14-14/11-11-11/6-6-6-|
D|---------9-9------12-12-------14-14-------16-16-16-16---------------|
A|--------------------------------------------------------------------|
E|--------------------------------------------------------------------|

e|--------------------------------------------------------------------|
B|--------------------------------------------------------------------|
G|6/7-7--7/9-9--9-9-9/11-11-11-11-13/14-14-14-14-14/11-11-11-11-11-11-|
D|--------------------------------------------------------------------|
A|--------------------------------------------------------------------|
E|--------------------------------------------------------------------|

e|--------------------------------------------------------------------|
B|--------------------------------------------------------------------|
G|---11/13----13---13---13/14---14---14---14/16---16---16--16/14--14--|
D|--------------------------------------------------------------------|
A|--------------------------------------------------------------------|
E|--------------------------------------------------------------------|

e|--------------------------------------------------------------------|
B|-------------------------12/14---14---14---14/15------14---14-------|
G|--------14/16---16---16---------------------------------------------|
D|--------------------------------------------------------------------|
A|--------------------------------------------------------------------|
E|--------------------------------------------------------------------|

e|--------------------------------------------------------------------|
B|-----12/14---14---14---14----12---14---(12)---14---14-------14--14--|
G|--------------------------------------------------------------------|
D|--------------------------------------------------------------------|
A|--------------------------------------------------------------------|
E|--------------------------------------------------------------------|

e|--------------------------------------------------------------------|
B|-----14/15--15--15--15----15--15--15--14-------14------12--12--12---|
G|--------------------------------------------------------------------|
D|--------------------------------------------------------------------|
A|--------------------------------------------------------------------|
E|--------------------------------------------------------------------|

e|--------------------------------------------------------------------|
B|-----12/14---14-----14-----14---14-----14----14/12/10----10---10----|
G|--------------------------------------------------------------------|
D|--------------------------------------------------------------------|
A|--------------------------------------------------------------------|
E|--------------------------------------------------------------------|

e|--------------------------------------------------------------------|
B|----10/9-9----9/7-7-7------7--7--5-----5/7-7-7-7/5-5-5/3---3/2-2-2--|
G|--------------------------------------------------------------------|
D|--------------------------------------------------------------------|
A|--------------------------------------------------------------------|
E|--------------------------------------------------------------------|

e|--------------------------------------------------------------------|
B|---0h2-3----3---3-3---2---0------0----------------------------------|
G|------------------------------2---------4-4-6---6---4-6-------4-4---|
D|--------------------------------------------------------------------|
A|--------------------------------------------------------------------|
E|--------------------------------------------------------------------|

e|--------------------------------------------------------------------|
B|--------------------------------------------------------------------|
G|4-4-6-6-4--6--6-4--6-6b(7)r--6--6-6/7-7-7-7/9-9-9-9/11-11-11--11-11-|
D|--------------------------------------------------------------------|
A|--------------------------------------------------------------------|
E|--------------------------------------------------------------------|

			       (Guitar 1)
e|---------------------------------|--0(hold)-------------------------|
B|---------------------------------|----------------------------------|
G|--------------------------2------|----------------------------------|
D|-----------4---------------------|----------------------------------|
A|-----5---------------------------|----------------------------------|
E|---------------------------------|----------------------------------|
comments
print report bad tab
2 comments total.
0 reply
harm0n20 wrote on September 27 2004, 12:00 am

hey somebody actually tabbed it after i requested it. i feel special now.

0 reply
jordythebear wrote on July 27 2008, 10:08 pm

i dont under stand it

I want to post or [tab]
guest
You may want to rate the tab now too:
select rating
Please do not post tabs as comments. Select "correction" instead!