Oops, an error
Loading. Please wait.

Ovum Tab

ver1
ver1

Intro

Whole song

More versions @911Tabs.com
3,348 views 1 this week
7 commentsread comments
1 2 3 4 5
excellent!
x 8
Autoscroll
+/-
esc
set tempo
stop
Contributor
WARNING: You are trying to view
                                    content from Ultimate-Guitar.com
                                    in an unauthorized application,
                                    which is prohibited.

                                    Please use an official Ultimate
                                    Guitar Tabs application for iPhone,
                                    iPad or Android to access legitimate
                                    chords, guitar, bass, and drum tabs
                                    from Ultimate-Guitar.com database.

                                    Type "ultimate guitar tabs" in Apple
                                    App Store's or Android Market's
                                    search to find the application.
Gtr I (C G C F A D) - 'Untitled'
Gtr II (C G C F A D) - 'Untitled'
Gtr III (C G C F A D) - 'Untitled'
Gtr IV (C G C F A D) - 'Untitled'

 Intro
  Q=197
  N.C.
 4/4
  Gtr III           Gtrs I, II
     <
                      PM|   PM|   PM--|   PM|   PM--|
  Q  H    S S E     E E E E E E E E   E E E E E E E E  4x
|---------------||------------------|------------------||
|----0----x-x---||o-----------------|-----------------o||
|----0----x-x---||------------------|------------------||
|----0----x-x---||------------------|------------------||
|----0----x-x---||o-2-----5-----2---|---5-----1-------o||
|---------------||----3-0---3-0---3-|-0---3-0---3-0-3--||


      PM--|   PM|     PM|   PM|   PM|
    E E E E E E E E   E E E E E E E E
||------------------|------------------||
||o-----------------|-----------------o||
||------------------|------------------||
||------------------|------------------||
||o-2-------1-----2-|-----3-----3-----o||
||----3-0-3---3-0---|-3-0---3-0---3-0--||


        PM--|   PM|     PM|   PM|   PM|
      E E E E E E E E   E E E E E E E E
|-||------------------|------------------||
|-||o-----------------|-----------------o||
|-||------------------|------------------||
|-||------------------|------------------||
|-||o-5-------3-----5-|-----6-----6-----o||
|-||----6-3-6---6-3---|-6-3---6-3---6-3--||


  E E E E E E E E   E E E E E E E E   E E E E E E E E   E E E E E E E E
|-----------------|-----------------|-----------------|-----------------|
|-----------------|-----------------|-----------------|-----------------|
|-----------------|-----------------|-----------------|-----------------|
|-----------------|-----------------|-----------------|-----------------|
|-3-------2-----3-|-----4-----4-----|-7-------5-----7-|-----8-----8-----|
|---4-1-4---4-1---|-4-1---4-1---4-1-|---8-5-8---8-5---|-8-5---8-5---8-5-|


   Verse
    N.C.
      PM|   PM|   PM--|   PM|   PM--|     PM|   PM|   PM--|   PM|   PM--|
    E E E E E E E E   E E E E E E E E   E E E E E E E E   E E E E E E E E
||------------------|-----------------|-----------------|-------------------||
||o-----------------|-----------------|-----------------|------------------o||
||------------------|-----------------|-----------------|-------------------||
||------------------|-----------------|-----------------|-------------------||
||o-2-----5-----2---|---5-----1-------|-2-----5-----2---|---5-----1--------o||
||----3-0---3-0---3-|-0---3-0---3-0-3-|---3-0---3-0---3-|-0---3-0---3-0-3---||


    $
    Gtr I
      PM|   PM|   PM--|   PM|   PM--|     PM|   PM|   PM--|   PM|   PM--|
    E E E E E E E E   E E E E E E E E   E E E E E E E E   E E E E E E E E
||------------------|-----------------|-----------------|-------------------||
||o-----------------|-----------------|-----------------|------------------o||
||------------------|-----------------|-----------------|-------------------||
||------------------|-----------------|-----------------|-------------------||
||o-5-----8-----5---|---8-----4-------|-5-----8-----5---|---8-----4--------o||
||----6-0---6-0---6-|-0---6-0---6-0-6-|---6-0---6-0---6-|-0---6-0---6-0-6---||
|
|   Gtr II
|     PM|   PM|   PM--|   PM|   PM--|     PM|   PM|   PM--|   PM|   PM--|
|   E E E E E E E E   E E E E E E E E   E E E E E E E E   E E E E E E E E
||------------------|-----------------|-----------------|-------------------||
||o-----------------|-----------------|-----------------|------------------o||
||------------------|-----------------|-----------------|-------------------||
||------------------|-----------------|-----------------|-------------------||
||o-2-----5-----2---|---5-----1-------|-2-----5-----2---|---5-----1--------o||
||----3-0---3-0---3-|-0---3-0---3-0-3-|---3-0---3-0---3-|-0---3-0---3-0-3---||


 Chorus
  $$
  N.C.
  Gtrs I, II
  E E E E E E Q    E E E E +E  E E E   E E E E E E Q    E E E E +E  E E E
|----------------|-------------------|----------------|-------------------|
|----------------|-------------------|----------------|-------------------|
|-4-x-4-x-4-x-4--|-------------------|-4-x-4-x-4-x-4--|-------------------|
|-x-x-x-x-x-x-x--|-------------------|-x-x-x-x-x-x-x--|-------------------|
|-2-x-2-x-2-x-2--|-------------------|-2-x-2-x-2-x-2--|-------------------|
|----------------|-3-5-6-5-(5)-3-5-6-|----------------|-3-5-6-5-(5)-3-5-6-|


  E E E E E E Q    E E E E +E  E E E   E E E E E E Q    E E E E +E  E E E
|----------------|-------------------|----------------|-------------------|
|----------------|-------------------|----------------|-------------------|
|-7-x-7-x-7-x-7--|-------------------|-7-x-7-x-7-x-7--|-------------------|
|-x-x-x-x-x-x-x--|-------------------|-x-x-x-x-x-x-x--|-------------------|
|-5-x-5-x-5-x-5--|-------------------|-5-x-5-x-5-x-5--|-5-2---5-(5)-2-----|
|----------------|-6-8-9-8-(8)-6-8-9-|----------------|-----6---------5-0-|


  E E E E E E Q    E E E E +E  E E E   E E E E E E Q    E E E E +E  E E E
|----------------|-------------------|----------------|-------------------|
|----------------|-------------------|----------------|-------------------|
|-4-x-4-x-4-x-4--|-------------------|-4-x-4-x-4-x-4--|-------------------|
|-x-x-x-x-x-x-x--|-------------------|-x-x-x-x-x-x-x--|-------------------|
|-2-x-2-x-2-x-2--|-------------------|-2-x-2-x-2-x-2--|-------------------|
|----------------|-3-5-6-5-(5)-3-5-6-|----------------|-3-5-6-5-(5)-3-5-6-|


                                                                 To Coda
                                                                 To Coda
  E E E E E E Q    E E E E +E  E E E   E E E E E E Q    E E E E +E  E Q
|----------------|-------------------|----------------|------------------|
|----------------|-------------------|----------------|------------------|
|-7-x-7-x-7-x-7--|-------------------|-7-x-7-x-7-x-7--|------------------|
|-x-x-x-x-x-x-x--|-------------------|-x-x-x-x-x-x-x--|------------------|
|-5-x-5-x-5-x-5--|-------------------|-5-x-5-x-5-x-5--|-5-2---5-(5)-2----|
|----------------|-6-8-9-8-(8)-6-8-9-|----------------|-----6---------5--|


   Pre Verse
    N.C.
    Gtr III
    Q.     E +Q     Q      +E  E +Q    Q   Q
||----------------------|----------------------|
||o---------------------|----------------------|
||--4------7-(7)---10---|-(10)-9-(9)---7---3---|
||----------------------|----------------------|
||o-2------5-(5)----8---|--(8)-7-(7)---5---1---|
||----------------------|----------------------|
|
|   Gtrs I, II
|      PM|    PM-|    PM--|       PM-|   PM--|
|   E  E E E  E  E  E E     E  E  E  E E E E E
||----------------------|----------------------|
||o---------------------|----------------------|
||----------------------|----------------------|
||----------------------|----------------------|
||o-2------5--------2---|------5-------1-------|
||-----3-0----3--0----3-|---0-----3--0---3-0-3-|


                               D.S. al Coda
  Q.     E +Q    Q     +E  E +Q    Q   Q
|--------------------|------------------------||
|--------------------|-----------------------o||
|-4------7-(7)---6---|-(6)-3-(3)---6---3------||
|--------------------|------------------------||
|-2------5-(5)---4---|-(4)-1-(1)---4---1-----o||
|--------------------|------------------------||
|
|    PM|    PM-|   PM--|      PM-|   PM--|
| E  E E E  E  E E E    E  E  E  E E E E E
|--------------------|------------------------||
|--------------------|-----------------------o||
|--------------------|------------------------||
|--------------------|------------------------||
|-2------5-------2---|-----5-------1---------o||
|----3-0----3--0---3-|--0-----3--0---3-0-3----||


 Breakdown
  Q=178
  &
  N.C.
  Gtr I
                                            ~~~
  Q  E E E E E E    E E E E +E  +S     +S  +Q
|----------------|------------------------------|
|----------------|------------------------------|
|----------------|------------------------------|
|----------------|------------------------------|
|----------------|------------------------------|
|-0--5-6-5-3-5-3-|-/8-5-0-3-(3)-(3)b5==(3)r(3)--|
|
| Gtr II
| W                 W
|----------------|------------------------------|
|----------------|------------------------------|
|----------------|------------------------------|
|----------------|------------------------------|
|----------------|------------------------------|
|----------------|------------------------------|


  Q  E E E E E E    E  E E E +E  E Q
|----------------|--------------------|
|----------------|--------------------|
|----------------|--------------------|
|----------------|--------------------|
|----------------|---------1-(1)-2-1--|
|-0--5-6-5-3-5-3-|-/8--5-0------------|
|
| W                 Q.     E +E  E Q
|----------------|--------------------|
|----------------|--------------------|
|----------------|--------------------|
|----------------|--------------------|
|----------------|---------4-(4)-5-4--|
|----------------|--------------------|


  D5
                                             ~~~
  Q  E E E E E E    E  E E E +E  +S     +S  +Q
|----------------|-------------------------------|
|----------------|-------------------------------|
|----------------|-------------------------------|
|----------------|-------------------------------|
|----------------|-------------------------------|
|-0--5-6-5-3-5-3-|-/8--5-0-3-(3)-(3)b5==(3)r(3)--|
|
| W                +W
|----------------|-------------------------------|
|----------------|-------------------------------|
|----------------|-------------------------------|
|-0--------------|-(0)---------------------------|
|-0--------------|-(0)---------------------------|
|-0--------------|-(0)---------------------------|


                  N.C.
   Q    E E E E E E    E E E E +E  E Q
|-------------------|-------------------|
|-------------------|-------------------|
|-------------------|-------------------|
|-------------------|-------------------|
|-------------------|-------------------|
|--0----5-6-5-3-5-3-|-/8-5-0-8-(8)-9-8--|
|
| +H..            E    E E E E +E  E Q
|-------------------|-------------------|
|-------------------|-------------------|
|-------------------|-------------------|
|-(0)---------------|-------------------|
|-(0)---------------|--------4-(4)-5-4--|
|-(0)-------------0-|-/8-5-0------------|


                                              ~~~
    Q  E E E E E E    E E E E +E  +S     +S  +Q
||-----------------|------------------------------|
||o----------------|------------------------------|
||-----------------|------------------------------|
||-----------------|------------------------------|
||o----------------|------------------------------|
||--0--5-6-5-3-5-3-|-/8-5-0-3-(3)-(3)b5==(3)r(3)--|
|
|                                             ~~~
|   Q  E E E E E E    E E E E +E  +S     +S  +Q
||-----------------|------------------------------|
||o----------------|------------------------------|
||-----------------|------------------------------|
||-----------------|------------------------------|
||o----------------|------------------------------|
||--0--5-6-5-3-5-3-|-/8-5-0-3-(3)-(3)b5==(3)r(3)--|


  Q  E E E E E E    E E E E +E  E Q
|----------------|--------------------||
|----------------|-------------------o||
|----------------|--------------------||
|----------------|--------------------||
|----------------|-------------------o||
|-0--5-6-5-3-5-3-|-/8-5-0-8-(8)-9-8---||
|
| Q  E E E E E E    E E E E +E  E Q
|----------------|--------------------||
|----------------|-------------------o||
|----------------|--------------------||
|----------------|--------------------||
|----------------|--------4-(4)-5-4--o||
|-0--5-6-5-3-5-3-|-/8-5-0-------------||


    D5  G5AbG5F5G5F5  BbG5D5F5
    Gtrs I, II
    PM-----------------------------------
    E E E E E E E E   E E E E E S S E E
||------------------|-------------------|
||o-----------------|-------------------|
||------------------|-------------------|
||------------------|-------------------|
||o-0-0-5-6-5-3-5-3-|-8-5-0-3-3-3-3-3-3-|
||--0-0-5-6-5-3-5-3-|-8-5-0-3-3-3-3-3-3-|


  D5  G5AbG5F5G5F5  BbG5D5F5
 -----------------------------------|
  E E E E E E E E   E E E E E S S E E
|-----------------|---------------------||
|-----------------|--------------------o||
|-----------------|---------------------||
|-----------------|---------------------||
|-0-0-5-6-5-3-5-3-|-8-5-0-3-3-3-3-3-3--o||
|-0-0-5-6-5-3-5-3-|-8-5-0-3-3-3-3-3-3---||


 Bridge
  Q=195
  N.C.
  E E E E E E E E   E E E E E E E E   E E E E E E E E   E E E E E E E E
|-----------------|-----------------|-----------------|-----------------|
|-----------------|-----------------|-----------------|-----------------|
|-----------------|-----------------|-----------------|-----------------|
|-----------------|-----------------|-----------------|-----------------|
|-5-----6-----6---|-5-----6-----6---|-5-----6-----6---|-5-----6-----6---|
|---6-3---7-3---7-|---6-3---7-3---7-|---6-3---7-3---7-|---6-3---7-3---7-|


  GbEbGbG5E5G5  E5  N.C.              GbEbGbG5E5G5  E5  GbEbGbG5E5G5  E5
  PM------------|                     PM------------------------------|
  E E E E E E E E   E E E E E E E E   E E E E E E E E   E E E E E E E E
|-----------------|-----------------|-----------------|-----------------|
|-----------------|-----------------|-----------------|-----------------|
|-----------------|-----------------|-----------------|-----------------|
|-----------------|-----------------|-----------------|-----------------|
|-4-1-4-5-2-5-5-2-|-5-----6-----6---|-4-1-4-5-2-5-5-2-|-4-1-4-5-2-5-5-2-|
|-4-1-4-5-2-5-5-2-|---6-3---7-3---7-|-4-1-4-5-2-5-5-2-|-4-1-4-5-2-5-5-2-|


  GbEbGbG5E5G5  E5  N.C.
  PM------------|
  E E E E E E E E   E E E E E E E E   E E E E E E E E
|-----------------|-----------------|-----------------|
|-----------------|-----------------|-----------------|
|-----------------|-----------------|-----------------|
|-----------------|-----------------|-----------------|
|-4-1-4-5-2-5-5-2-|-5-----6-----6---|-5-----6-----6---|
|-4-1-4-5-2-5-5-2-|---6-3---7-3---7-|---6-3---7-3---7-|


  Gtr III
  W                 W
|-----------------|-----------------|
|-----------------|-----------------|
|-----------------|-----------------|
|-----------------|-----------------|
|-----------------|-----------------|
|-----------------|-----------------|
|
| Gtr I
| E E E E E E E E   E E E E E E E E
|-----------------|-----------------|
|-----------------|-----------------|
|-----------------|-----------------|
|-4-1-4-5-2-5-5-2-|-7-4-7-8-5-8-8-5-|
|-----------------|-----------------|
|-----------------|-----------------|
|
| Gtr II
| E E E E E E E E   E E E E E E E E
|-----------------|-----------------|
|-----------------|-----------------|
|-----------------|-----------------|
|-4-1-4-5-2-5-5-2-|-4-1-4-5-2-5-5-2-|
|-----------------|-----------------|
|-----------------|-----------------|


   W                      E  E  E  E  E  E  E  E
|----------------------|-------------------------|
|----------------------|-------------------------|
|----------------------|-------------15-------15-|
|----------------------|-13-10-13-14----14-15----|
|----------------------|-------------------------|
|----------------------|-------------------------|
|
|  E E  E  E E  E  E E    E  E  E  E  E  E  E  E
|----------------------|-------------------------|
|----------------------|-------------------------|
|----------------------|-------------15-------15-|
|-10-7-10-11-8-11-11-8-|-13-10-13-14----14-15----|
|----------------------|-------------------------|
|----------------------|-------------------------|
|
|  E E  E  E E  E  E E    E  E  E  E  E  E  E  E
|----------------------|-------------------------|
|----------------------|-------------------------|
|----------------------|-------------------------|
|--7-4--7--8-5--8--8-5-|-10--7-10-11--8-11-11--8-|
|----------------------|-------------------------|
|----------------------|-------------------------|


 Lead
  N.C.
  Gtr III
   W                  +H         E  E  E  E
|------------------|------------------------|
|-12---------------|-(12)-------15-14-15-12-|
|------------------|------------------------|
|------------------|------------------------|
|------------------|------------------------|
|------------------|------------------------|
|
| Gtr IV
|  W                  +H         E  E  E  E
|------------------|------------------------|
|------------------|------------------------|
|------------------|------------------------|
|--9---------------|--(9)-------12-11-12--9-|
|------------------|------------------------|
|------------------|------------------------|
|
| Gtrs I, II
|    PM|   PM|   PM--|      PM|     PM---|
|  E E E E E E E E     E  E E E  E  E  E  E
|------------------|------------------------|
|------------------|------------------------|
|------------------|------------------------|
|------------------|------------------------|
|--2-----5-----2---|------5------1----------|
|----3-0---3-0---3-|---0----3-0-----3--0--3-|


   +W                   +H         E  E  E  E
|--------------------|-------------------------|
|-(12)---------------|-(12)-------11-12-11-12--|
|--------------------|-------------------------|
|--------------------|-------------------------|
|--------------------|-------------------------|
|--------------------|-------------------------|
|
|  +W                   +H         E  E  E  E
|--------------------|-------------------------|
|--------------------|-------------------------|
|--------------------|-------------------------|
|--(9)---------------|--(9)--------8--9--8--9--|
|--------------------|-------------------------|
|--------------------|-------------------------|
|
|      PM|   PM|   PM--|      PM|     PM---|
|   E  E E E E E E E     E  E E E  E  E  E  E
|--------------------|-------------------------|
|--------------------|-------------------------|
|--------------------|-------------------------|
|--------------------|-------------------------|
|---2------5-----2---|------5------1-----------|
|------3-0---3-0---3-|---0----3-0-----3--0--3--|


   +W                   +H         E  E  E  E
|--------------------|------------------------|
|-(12)---------------|-(12)-------15-14-15-12-|
|--------------------|------------------------|
|--------------------|------------------------|
|--------------------|------------------------|
|--------------------|------------------------|
|
|  +W                   +H         E  E  E  E
|--------------------|------------------------|
|--------------------|------------------------|
|--------------------|------------------------|
|--(9)---------------|--(9)-------12-11-12--9-|
|--------------------|------------------------|
|--------------------|------------------------|
|
|      PM|   PM|   PM--|      PM|     PM---|
|   E  E E E E E E E     E  E E E  E  E  E  E
|--------------------|------------------------|
|--------------------|------------------------|
|--------------------|------------------------|
|--------------------|------------------------|
|---2------5-----2---|------5------1----------|
|------3-0---3-0---3-|---0----3-0-----3--0--3-|


   +W                   E  E  E  E  E  E  E  E
|--------------------|--------------------------|
|-(12)---------------|-12-11--------------------|
|--------------------|-------11-------12-11-----|
|--------------------|----------11-12-------12--|
|--------------------|--------------------------|
|--------------------|--------------------------|
|
|  +W                   E  E  E  E  E  E  E  E
|--------------------|--------------------------|
|--------------------|-15-14--------------------|
|--------------------|-------16-15----16-15-----|
|--(9)---------------|-------------17-------17--|
|--------------------|--------------------------|
|--------------------|--------------------------|
|
|      PM|   PM|   PM--|      PM|      PM---|
|   E  E E E E E E E    E  E  E  E  E  E  E  E
|--------------------|--------------------------|
|--------------------|--------------------------|
|--------------------|--------------------------|
|--------------------|--------------------------|
|---2------5-----2---|-----5--------1-----------|
|------3-0---3-0---3-|--0-----3--0-----3--0--3--|


                                                       D.S.S. al Dbl. Coda
  Gtr III
                     >
  W                 +W                    W                 W                 3x
|-----------------|-------------------||------------------|-------------------||
|-----------------|-------------------||o-----------------|------------------o||
|-----------------|-------------------||------------------|-------------------||
|-9---------------|-(9)---------------||------------------|-------------------||
|-----------------|-------------------||o-----------------|------------------o||
|-----------------|-------------------||------------------|-------------------||
|
| Gtr I
|   PM|   PM|   PM--|     PM|   PM--|       PM|   PM|   PM--|   PM|   PM--|
| E E E E E E E E    E  E E E E E E E     E E E E E E E E   E E E E E E E E   3x
|-----------------|-------------------||------------------|-------------------||
|-----------------|-------------------||o-----------------|------------------o||
|-----------------|-------------------||------------------|-------------------||
|-----------------|-------------------||------------------|-------------------||
|-5-----8-----5---|-----8-----4-------||o-5-----8-----5---|---8-----4--------o||
|---6-0---6-0---6-|--0----6-0---6-0-6-||----6-0---6-0---6-|-0---6-0---6-0-6---||
|
| Gtr II
|   PM|   PM|   PM--|     PM|   PM--|       PM|   PM|   PM--|   PM|   PM--|
| E E E E E E E E    E  E E E E E E E     E E E E E E E E   E E E E E E E E   3x
|-----------------|-------------------||------------------|-------------------||
|-----------------|-------------------||o-----------------|------------------o||
|-----------------|-------------------||------------------|-------------------||
|-----------------|-------------------||------------------|-------------------||
|-2-----5-----2---|-----5-----1-------||o-2-----5-----2---|---5-----1--------o||
|---3-0---3-0---3-|--0----3-0---3-0-3-||----3-0---3-0---3-|-0---3-0---3-0-3---||


 Outro
  &&
  N.C.
  Gtr I
  E E E E +E  E Q    E E E E +E  E Q    E E E E +E  E Q
|------------------|------------------|------------------|
|------------------|------------------|------------------|
|------------------|------------------|------------------|
|------------------|------------------|------------------|
|-5-2---5-(5)-2----|-8-5---8-(8)-5----|-8-5---8-(8)-5----|
|-----6---------5--|-----9---------8--|-----9---------8--|
|
| Gtr II
| E E E E +E  E Q    E E E E +E  E Q    E E E E +E  E Q
|------------------|------------------|------------------|
|------------------|------------------|------------------|
|------------------|------------------|------------------|
|------------------|------------------|------------------|
|-5-2---5-(5)-2----|-5-2---5-(5)-2----|-5-2---5-(5)-2----|
|-----6---------5--|-----6---------5--|-----6---------5--|


                                          D5
    E E E E E E E E   E E E E E E E E     q  H.
||------------------|------------------||----------*|
||o-----------------|-----------------o||----------*|
||------------------|------------------||----------*|
||------------------|------------------||-0--------*|
||o-8-5---8-5-----5-|-8-5---8-5-----5-o||-0--------*|
||------9-----8-9---|-----9-----8-9----||-0--------*|
|
|   E E E E E E E E   E E E E E E E E     q  H.
||------------------|------------------||----------*|
||o-----------------|-----------------o||----------*|
||------------------|------------------||----------*|
||------------------|------------------||-0--------*|
||o-5-2---5-2-----2-|-5-2---5-2-----2-o||-0--------*|
||------6-----5-6---|-----6-----5-6----||-0--------*|



Duration Legend
---------------
W - whole; H - half; Q - quarter; E - 8th; S - 16th; T - 32nd; X - 64th; a - acciaccatura
+ - note tied to previous; . - note dotted; .. - note double dotted
Uncapitalized letters represent notes that are staccato (1/2 duration)
Irregular groupings are notated above the duration line
Duration letters will always appear directly above the note/fret number it represents the
duration for.  Duration letters with no fret number below them represent rests.  Multi-
bar rests are notated in the form Wxn, where n is the number of bars to rest for.  Low
melody durations appear below the staff

Tablature Legend
----------------
 h   - hammer-on
 p   - pull-off
 b   - bend
 pb  - pre-bend
 r   - bend release (if no number after the r, then release immediately)
 /\  - slide into or out of (from/to "nowhere")
 s   - legato slide
 S   - shift slide
 - natural harmonic
[n]  - artificial harmonic
n(n) - tapped harmonic
 ~   - vibrato
 tr  - trill
 T   - tap
 TP  - trem. picking
 PM  - palm muting
\n/  - tremolo bar dip; n = amount to dip
 \n  - tremolo bar down
 n/  - tremolo bar up
/n\  - tremolo bar inverted dip
 =   - hold bend; also acts as connecting device for hammers/pulls
 <> - volume swell (louder/softer)
 x   - on rhythm slash represents muted slash
 o   - on rhythm slash represents single note slash

Misc Legend
-----------
 |  - bar
||  - double bar
||o - repeat start
o|| - repeat end
*|  - double bar (ending)
 :  - bar (freetime)
 $  - Segno
 &  - Coda
Tempo markers -  = BPM(8/16=s8/s16), where s8 = swing 8ths, s16 = swing 16ths

comments
print report bad tab
7 comments total. Showing first comments.
0 reply
MetalorDIE wrote on June 26 2007, 12:38 pm

awesome man! been waitin for a 'full and correct' version of a DAATH tab for awhile now! great job!

0 reply
col50 wrote on July 3 2007, 08:37 pm

please rate

+1 reply
Jonakin wrote on August 20 2007, 03:23 pm

Great tab but can you please tab From The Blind?

I want to post or [tab]
guest
You may want to rate the tab now too:
select rating
Please do not post tabs as comments. Select "correction" instead!