Oops, an error
Loading. Please wait.

Blue Water Blue Sky Tab

ver1
ver1

Solo

Whole song

More versions @911Tabs.com
2,843 views 6 this week
no commentswrite comment
1 2 3 4 5
excellent!
x 1
add to favorites launch autoscroll
font size
0
reset
Autoscroll
+/-
esc
set tempo
stop
Contributor
WARNING: You are trying to view
                                    content from Ultimate-Guitar.com
                                    in an unauthorized application,
                                    which is prohibited.

                                    Please use an official Ultimate
                                    Guitar Tabs application for iPhone,
                                    iPad or Android to access legitimate
                                    chords, guitar, bass, and drum tabs
                                    from Ultimate-Guitar.com database.

                                    Type "ultimate guitar tabs" in Apple
                                    App Store's or Android Market's
                                    search to find the application.
Blue Water, Blue Sky (May's Theme)
From Guilty Gear XX
Song composed by Daisuke Ishiwatari and Kou-Ichi Seiyama
Tabbed by Stefan H
Contact: stef_hitchhiker42 (at) yahoo (dot) ca for corrections/suggestions


Gtr 1, 2 (E A D G B E) - Rhythm w/ Distortion
Gtr 3 (E A D G B E) - 2nd Lead w/ Distortion
Gtr 4 (E A D G B E) - 1st Lead w/ Distortion
Keyboard - ???


  mm = 182


  Keyboard

  E   E   E   E   E   E   E   E    E   E   E   E   E   E   E   E  
|--------------------------------|--------------------------------|
|-5---4---0---5---4---0---5---4--|-0---5---4---0---5---4---0---4--|
|--------------------------------|--------------------------------|
|--------------------------------|--------------------------------|
|--------------------------------|--------------------------------|
|--------------------------------|--------------------------------|
|
| Gtr 1,2
|
| W                               +W
|--------------------------------|--------------------------------|
|--------------------------------|--------------------------------|
|--------------------------------|--------------------------------|
|-4------------------------------|(4)-----------------------------|
|-4------------------------------|(4)-----------------------------|
|-2------------------------------|(2)-----------------------------|

  mm = 198

  E   E   E   E   E   E   E   E    E   E   E   E   E   E   E   E  
|--------------------------------|--------------------------------|
|-5---4---0---5---4---0---5---4--|-0---5---4---0---5---4---0---4--|
|--------------------------------|--------------------------------|
|--------------------------------|--------------------------------|
|--------------------------------|--------------------------------|
|--------------------------------|--------------------------------|
|
| W                               +W
|--------------------------------|--------------------------------|
|--------------------------------|--------------------------------|
|--------------------------------|--------------------------------|
|-6------------------------------|(6)-----------------------------|
|-6------------------------------|(6)-----------------------------|
|-4------------------------------|(4)-----------------------------|


  E   E   E   E   E   E   E   E    E   E   E   E   E   E   E   E  
|--------------------------------|--------------------------------|
|-5---4---0---5---4---0---5---4--|-0---5---4---0---5---4---0---4--|
|--------------------------------|--------------------------------|
|--------------------------------|--------------------------------|
|--------------------------------|--------------------------------|
|--------------------------------|--------------------------------|
|
| W                               +W
|--------------------------------|--------------------------------|
|--------------------------------|--------------------------------|
|--------------------------------|--------------------------------|
|-7------------------------------|(7)-----------------------------|
|-7------------------------------|(7)-----------------------------|
|-5------------------------------|(5)-----------------------------|


  E   E   E   E   E   E   E   E    E   E   E   E   E   E   E   E  
|--------------------------------|--------------------------------|
|-5---4---0---5---4---0---5---4--|-0---5---4---0---5---4---0---4--|
|--------------------------------|--------------------------------|
|--------------------------------|--------------------------------|
|--------------------------------|--------------------------------|
|--------------------------------|--------------------------------|
|
| W                               +W
|--------------------------------|--------------------------------|
|--------------------------------|--------------------------------|
|--------------------------------|--------------------------------|
|-9------------------------------|(9)-----------------------------|
|-9------------------------------|(9)-----------------------------|
|-7------------------------------|(7)-----------------------------|


  E   E   E   E   E   E   E   E    E   E   E   E   E   E   E   E  
|--------------------------------|--------------------------------|
|-5---4---0---5---4---0---5---4--|-0---5---4---0---5---4---0---4--|
|--------------------------------|--------------------------------|
|--------------------------------|--------------------------------|
|--------------------------------|--------------------------------|
|--------------------------------|--------------------------------|
|
| Gtr 2
|
| Q       E   E   e   E   E   E    E   E   E   E   E   E   E   E
|--------------------------------|--------------------------------|
|--------------------------------|--------------------------------|
|--------------------------------|--------------------------------|
|-4------------------------------|--------------------------------|
|-4-------4---4-------4---4---4--|-4---4---4---4---4---4---4---4--|
|-2-------2---2-------2---2---2--|-2---2---2---2---2---2---2---2--|
|        PM          PM      PM.....      PM....      PM      PM
|
| Gtr 1
|
| Q       E   E   E   E   E   E    E   E   E   E   E   E   E   E  
|--------------------------------|--------------------------------|
|--------------------------------|--------------------------------|
|--------------------------------|--------------------------------|
|-4------------------------------|--------------------------------|
|-4-------4---4---4---4---4---4--|-4---4---4---4---4---4---4---4--|
|-2-------2---2---2---2---2---2--|-2---2---2---2---2---2---2---2--|
         PM.....................................................


  E   E   E   E   E   E   E   E    E   E   E   E   E   E   E   E  
|--------------------------------|--------------------------------|
|-5---4---0---5---4---0---5---4--|-0---5---4---0---5---4---0---4--|
|--------------------------------|--------------------------------|
|--------------------------------|--------------------------------|
|--------------------------------|--------------------------------|
|--------------------------------|--------------------------------|
|
| Q       E   E   e   E   E   E    E   E   E   E   E   E   E   E
|--------------------------------|--------------------------------|
|--------------------------------|--------------------------------|
|--------------------------------|--------------------------------|
|-6------------------------------|--------------------------------|
|-6-------6---6-------6---6---6--|-6---6---6---6---6---6---6---6--|
|-4-------4---4-------4---4---4--|-4---4---4---4---4---4---4---4--|
|        PM          PM      PM.....      PM....      PM      PM
|
| Q       E   E   E   E   E   E    E   E   E   E   E   E   E   E  
|--------------------------------|--------------------------------|
|--------------------------------|--------------------------------|
|--------------------------------|--------------------------------|
|-6------------------------------|--------------------------------|
|-6-------6---6---6---6---6---6--|-6---6---6---6---6---6---6---6--|
|-4-------4---4---4---4---4---4--|-4---4---4---4---4---4---4---4--|
         PM.....................................................


  E   E   E   E   E   E   E   E    E   E   E   E   E   E   E   E  
|--------------------------------|--------------------------------|
|-5---4---0---5---4---0---5---4--|-0---5---4---0---5---4---0---4--|
|--------------------------------|--------------------------------|
|--------------------------------|--------------------------------|
|--------------------------------|--------------------------------|
|--------------------------------|--------------------------------|
|
| Q       E   E   e   E   E   E    E   E   E   E   E   E   E   E
|--------------------------------|--------------------------------|
|--------------------------------|--------------------------------|
|--------------------------------|--------------------------------|
|-7------------------------------|--------------------------------|
|-7-------7---7-------7---7---7--|-7---7---7---7---7---7---7---7--|
|-5-------5---5-------5---5---5--|-5---5---5---5---5---5---5---5--|
|        PM          PM      PM.....      PM....      PM      PM
|
| Q       E   E   E   E   E   E    E   E   E   E   E   E   E   E  
|--------------------------------|--------------------------------|
|--------------------------------|--------------------------------|
|--------------------------------|--------------------------------|
|-7------------------------------|--------------------------------|
|-7-------7---7---7---7---7---7--|-7---7---7---7---7---7---7---7--|
|-5-------5---5---5---5---5---5--|-5---5---5---5---5---5---5---5--|
         PM.....................................................


  Gtr 3

  h.                      E   E     Q.          Q.          E   e   
|-------------------------9--11--|/12----------11------------------|
|--------------------------------|-------------------------12------|
|--------------------------------|---------------------------------|
|--------------------------------|---------------------------------|
|--------------------------------|---------------------------------|
|--------------------------------|---------------------------------|
|
| W                                 W
|--------------------------------|---------------------------------|
|-7------------------------------|--5------------------------------|
|--------------------------------|---------------------------------|
|--------------------------------|---------------------------------|
|--------------------------------|---------------------------------|
|--------------------------------|---------------------------------|
|
| Q       E   E   e   E   E   E     Q       E   E   q       Q    
|--------------------------------|---------------------------------|
|--------------------------------|---------------------------------|
|--------------------------------|---------------------------------|
|-9------------------------------|--7------------------------------|
|-9-------9---9-------9---9---9--|--7-------7---7-----------6------|
|-7-------7---7-------7---7---7--|--5-------5---5-----------4------|
|        PM          PM      PM            PM
|
| Q       E   E   E   E   E   E     Q       E   E   E   E   Q
|--------------------------------|---------------------------------|
|--------------------------------|---------------------------------|
|--------------------------------|---------------------------------|
|-9------------------------------|---------------------------------|
|-9-------9---9---9---9---9---9--|--7-------7---7---7---7---6------|
|-7-------7---7---7---7---7---7--|--5-------5---5---5---5---4------|
         PM....................            PM................


  W                                +H.                     +E   e 
|--------------------------------|---------------------------------|
|10------------------------------|(10)----------------------\------|
|--------------------------------|---------------------------------|
|--------------------------------|---------------------------------|
|--------------------------------|---------------------------------|
|--------------------------------|---------------------------------|
|
| E   E   E   E   E   E   E   E     E   E   E   E   E   E   E   E  
|--------------------------------|---------------------------------|
|-5---4---0---5---4---0---5---4--|--0---5---4---0---5---4---0---4--|
|--------------------------------|---------------------------------|
|--------------------------------|---------------------------------|
|--------------------------------|---------------------------------|
|--------------------------------|---------------------------------|
|
| Q       E   E   e   E   E   E     E   E   E   E   E   E   E   E
|--------------------------------|---------------------------------|
|--------------------------------|---------------------------------|
|--------------------------------|---------------------------------|
|-4------------------------------|---------------------------------|
|-4-------4---4-------4---4---4--|--4---4---4---4---4---4---4---4--|
|-2-------2---2-------2---2---2--|--2---2---2---2---2---2---2---2--|
|        PM          PM      PM......      PM....      PM      PM
|
| Q       E   E   E   E   E   E     E   E   E   E   E   E   E   E
|--------------------------------|---------------------------------|
|--------------------------------|---------------------------------|
|--------------------------------|---------------------------------|
|-4------------------------------|---------------------------------|
|-4-------4---4---4---4---4---4--|--4---4---4---4---4---4---4---4--|
|-2-------2---2---2---2---2---2--|--2---2---2---2---2---2---2---2--|
         PM......................................................


  E   E   E   E   E   E   E   E    E   E   E   E   E   E   E   E  
|--------------------------------|--------------------------------|
|-5---4---0---5---4---0---5---4--|-0---5---4---0---5---4---0---4--|
|--------------------------------|--------------------------------|
|--------------------------------|--------------------------------|
|--------------------------------|--------------------------------|
|--------------------------------|--------------------------------|
|
| Q       E   E   e   E   E   E    E   E   E   E   E   E   E   E
|--------------------------------|--------------------------------|
|--------------------------------|--------------------------------|
|--------------------------------|--------------------------------|
|-6------------------------------|--------------------------------|
|-6-------6---6-------6---6---6--|-6---6---6---6---6---6---6---6--|
|-4-------4---4-------4---4---4--|-4---4---4---4---4---4---4---4--|
|        PM          PM      PM.....      PM....      PM      PM
|
| Q       E   E   E   E   E   E    E   E   E   E   E   E   E   E  
|--------------------------------|--------------------------------|
|--------------------------------|--------------------------------|
|--------------------------------|--------------------------------|
|-6------------------------------|--------------------------------|
|-6-------6---6---6---6---6---6--|-6---6---6---6---6---6---6---6--|
|-4-------4---4---4---4---4---4--|-4---4---4---4---4---4---4---4--|
         PM.....................................................


  E   E   E   E   E   E   E   E    E   E   E   E   E   E   E   E  
|--------------------------------|--------------------------------|
|-5---4---0---5---4---0---5---4--|-0---5---4---0---5---4---0---4--|
|--------------------------------|--------------------------------|
|--------------------------------|--------------------------------|
|--------------------------------|--------------------------------|
|--------------------------------|--------------------------------|
|
| Q       E   E   e   E   E   E    E   E   E   E   E   E   E   E
|--------------------------------|--------------------------------|
|--------------------------------|--------------------------------|
|--------------------------------|--------------------------------|
|-7------------------------------|--------------------------------|
|-7-------7---7-------7---7---7--|-7---7---7---7---7---7---7---7--|
|-5-------5---5-------5---5---5--|-5---5---5---5---5---5---5---5--|
|        PM          PM      PM.....      PM....      PM      PM
|
| Q       E   E   E   E   E   E    E   E   E   E   E   E   E   E
|--------------------------------|--------------------------------|
|--------------------------------|--------------------------------|
|--------------------------------|--------------------------------|
|-7------------------------------|--------------------------------|
|-7-------7---7---7---7---7---7--|-7---7---7---7---7---7---7---7--|
|-5-------5---5---5---5---5---5--|-5---5---5---5---5---5---5---5--|
         PM.....................................................


  W                               +W
|--------------------------------|--------------------------------|
|-7------------------------------|(7)-----------------------------|
|--------------------------------|--------------------------------|
|--------------------------------|--------------------------------|
|--------------------------------|--------------------------------|
|--------------------------------|--------------------------------|
|
| Q       E   E   e   E   E   E    E   E   E   E   E   E   E   E
|--------------------------------|--------------------------------|
|--------------------------------|--------------------------------|
|--------------------------------|--------------------------------|
|-9------------------------------|-6------------------------------|
|-9-------9---9-------9---9---9--|-6-------6---6-------6---6---6--|
|-7-------7---7-------7---7---7--|-4-------4---4-------4---4---4--|
|        PM          PM      PM           PM          
|
| Q       E   E   E   E   E   E    Q       E   E   E   E   E   E
|--------------------------------|--------------------------------|
|--------------------------------|--------------------------------|
|--------------------------------|--------------------------------|
|-9------------------------------|-6------------------------------|
|-9-------9---9---9---9---9---9--|-6-------6---6---6---6---6---6--|
|-7-------7---7---7---7---7---7--|-4-------4---4---4---4---4---4--|
         PM....................           PM....................


  Gtr 4

  Q       E   E   Q       E   E    H              +E   E   E   E  
|-----------------7--------------|--------------------------------|
|-5-------0---4-----------0---4--|-5--------------(5)--5---0---4--|
|--------------------------------|--------------------------------|
|--------------------------------|--------------------------------|
|--------------------------------|--------------------------------|
|--------------------------------|--------------------------------|
|
| Gtr 1,2
|
| W                               +W
|--------------------------------|--------------------------------|
|--------------------------------|--------------------------------|
|--------------------------------|--------------------------------|
|-7------------------------------|(7)-----------------------------|
|-7------------------------------|(7)-----------------------------|
|-5------------------------------|(5)-----------------------------|


  Q       E   E   e   E   E   E    H              +E   E   E   E  
|-------------7-------5---4------|--------------------------------|
|-5-------0-------------------7--|-5--------------(5)--4---5---7--|
|--------------------------------|--------------------------------|
|--------------------------------|--------------------------------|
|--------------------------------|--------------------------------|
|--------------------------------|--------------------------------|
|
| W                               +W
|--------------------------------|--------------------------------|
|--------------------------------|--------------------------------|
|--------------------------------|--------------------------------|
|-9------------------------------|(9)-----------------------------|
|-9------------------------------|(9)-----------------------------|
|-7------------------------------|(7)-----------------------------|


 a W                               +H               E   e   E   E  
|---------------------------------|--------------------------------|
|7b9-------~---~---~---~---~---~--|(9)--------------9--------------|
|---------------------------------|-------------------------8---6--|
|---------------------------------|--------------------------------|
|---------------------------------|--------------------------------|
|---------------------------------|--------------------------------|
|
|  W                               +W
|---------------------------------|--------------------------------|
|---------------------------------|--------------------------------|
|--6------------------------------|(6)-----------------------------|
|--6------------------------------|(6)-----------------------------|
|--4------------------------------|(4)-----------------------------|
|---------------------------------|--------------------------------|


  Q       E   H              +E    W
|--------------------------------|--------------------------------|
|--------------------------------|--------------------------------|
|-8-------9---6--------------(6)-|-4------------------------------|
|--------------------------------|--------------------------------|
|--------------------------------|--------------------------------|
|--------------------------------|--------------------------------|
|
| W                                W
|--------------------------------|--------------------------------|
|--------------------------------|--------------------------------|
|--------------------------------|--------------------------------|
|-7------------------------------|-9------------------------------|
|-7------------------------------|-9------------------------------|
|-5------------------------------|-7------------------------------|


  Q       E   E   Q       E   E    H              +E   E   E   E  
|-----------------7--------------|--------------------------------|
|-5-------0---4-----------0---4--|-5--------------(5)--5---0---4--|
|--------------------------------|--------------------------------|
|--------------------------------|--------------------------------|
|--------------------------------|--------------------------------|
|--------------------------------|--------------------------------|
|
| Gtr 2
|
| Q       E   E   E   E   E   E    E   E   E   E   E   E   E   E
|--------------------------------|--------------------------------|
|--------------------------------|--------------------------------|
|--------------------------------|--------------------------------|
|-7------------------------------|--------------------------------|
|-7-------7---7---7---7---7---7--|-7---7---7---7---7---7---7---7--|
|-5-------5---5---5---5---5---5--|-5---5---5---5---5---5---5---5--|
|        PM      PM........       PM      PM      PM
|
| Gtr 1
|
| Q       E   E   E   E   E   E    E   E   E   E   E   E   E   E
|--------------------------------|--------------------------------|
|--------------------------------|--------------------------------|
|--------------------------------|--------------------------------|
|-7------------------------------|--------------------------------|
|-7-------7---7---7---7---7---7--|-7---7---7---7---7---7---7---7--|
|-5-------5---5---5---5---5---5--|-5---5---5---5---5---5---5---5--|
         PM.....................................................



  Q       E   E   e   E   E   E    H              +E   E   E   E  
|-------------7-------5---4------|--------------------------------|
|-5-------0-------------------7--|-5--------------(5)--4---5---7--|
|--------------------------------|--------------------------------|
|--------------------------------|--------------------------------|
|--------------------------------|--------------------------------|
|--------------------------------|--------------------------------|
|
| Q       E   E   E   E   E   E    E   E   E   E   E   E   E   E
|--------------------------------|--------------------------------|
|--------------------------------|--------------------------------|
|--------------------------------|--------------------------------|
|-9------------------------------|--------------------------------|
|-9-------9---9---9---9---9---9--|-9---9---9---9---9---9---9---9--|
|-7-------7---7---7---7---7---7--|-7---7---7---7---7---7---7---7--|
|        PM      PM........       PM      PM      PM
|
| Q       E   E   E   E   E   E    E   E   E   E   E   E   E   E  
|--------------------------------|--------------------------------|
|--------------------------------|--------------------------------|
|--------------------------------|--------------------------------|
|-9------------------------------|--------------------------------|
|-9-------9---9---9---9---9---9--|-9---9---9---9---9---9---9---9--|
|-7-------7---7---7---7---7---7--|-7---7---7---7---7---7---7---7--|
         PM.....................................................


 a  Q      +E  +H              +E   +H               E   e   E   E  
|----------------------------------|--------------------------------|
|7pb9------r7--b9--------------(9)-|(9)--------------9--------------|
|----------------------------------|-------------------------8---6--|
|----------------------------------|--------------------------------|
|----------------------------------|--------------------------------|
|----------------------------------|--------------------------------|
|
|   Q       E   E   E   E   E   E    E   E   E   E   E   E   E   E
|----------------------------------|--------------------------------|
|----------------------------------|--------------------------------|
|---6------------------------------|--------------------------------|
|---6-------6---6---6---6---6---6--|-6---6---6---6---6---6---6---6--|
|---4-------4---4---4---4---4---4--|-4---4---4---4---4---4---4---4--|
|----------------------------------|--------------------------------|
|          PM      PM........       PM      PM      PM
|
|   Q       E   E   E   E   E   E    E   E   E   E   E   E   E   E
|----------------------------------|--------------------------------|
|----------------------------------|--------------------------------|
|---6------------------------------|--------------------------------|
|---6-------6---6---6---6---6---6--|-6---6---6---6---6---6---6---6--|
|---4-------4---4---4---4---4---4--|-4---4---4---4---4---4---4---4--|
|----------------------------------|--------------------------------|
           PM.....................................................


  Q       E   H              +E    Q       Q       Q       Q      
|--------------------------------|--------------------------------|
|--------------------------------|-----------------7-------9------|
|-8-------9---6--------------(6)-|-8-------9----------------------|
|--------------------------------|--------------------------------|
|--------------------------------|--------------------------------|
|--------------------------------|--------------------------------|
|
| Q       E   E   E   E   E   E    Q       E   E   E   E   Q    
|--------------------------------|--------------------------------|
|--------------------------------|--------------------------------|
|--------------------------------|--------------------------------|
|-7------------------------------|-6------------------------------|
|-7-------7---7---7---7---7---7--|-6-------6---6---6---6---6------|
|-5-------5---5---5---5---5---5--|-4-------4---4---4---4---4------|
|        PM      PM....      PM           PM      PM....       
|
| Q       E   E   E   E   E   E    Q       E   E   E   E   Q      
|--------------------------------|--------------------------------|
|--------------------------------|--------------------------------|
|--------------------------------|--------------------------------|
|-7------------------------------|-6------------------------------|
|-7-------7---7---7---7---7---7--|-6-------6---6---6---6---6------|
|-5-------5---5---5---5---5---5--|-4-------4---4---4---4---4------|
         PM....................           PM............


  H.                      E   E    a  H               Q       Q      
|--------------------------------|-----------------------------------|
|10-----------------------9--10--|10b12------------------------------|
|--------------------------------|-------------------11-------9------|
|--------------------------------|-----------------------------------|
|--------------------------------|-----------------------------------|
|--------------------------------|-----------------------------------|
|
| Gtr 3
|
| H.                      E   E       H               Q       Q      
|--------------------------------|-----------------------------------|
|-7---------------------------7--|----9---------------7--------------|
|-------------------------9------|----------------------------6------|
|--------------------------------|-----------------------------------|
|--------------------------------|-----------------------------------|
|--------------------------------|-----------------------------------|
|
| Gtr 1,2
|
| W                                  +W
|--------------------------------|-----------------------------------|
|--------------------------------|-----------------------------------|
|--------------------------------|-----------------------------------|
|-4------------------------------|---(4)-----------------------------|
|-4------------------------------|---(4)-----------------------------|
|-2------------------------------|---(2)-----------------------------|


  H.                      E   E    H               Q       Q      
|--------------------------------|--------------------------------|
|-9---------------------------9--|10---------------9--------------|
|------------------------11------|-------------------------8------|
|--------------------------------|--------------------------------|
|--------------------------------|--------------------------------|
|--------------------------------|--------------------------------|
|
| H.                      E   E    H               Q       Q      
|--------------------------------|--------------------------------|
|--------------------------------|--------------------------------|
|-8-----------------------6---8--|-9---------------8--------------|
|--------------------------------|-------------------------9------|
|--------------------------------|--------------------------------|
|--------------------------------|--------------------------------|
|
| W                               +W
|--------------------------------|--------------------------------|
|--------------------------------|--------------------------------|
|--------------------------------|--------------------------------|
|-6------------------------------|(6)-----------------------------|
|-6------------------------------|(6)-----------------------------|
|-4------------------------------|(4)-----------------------------|


  H.                      E   E    H               Q       Q      
|--------------------------------|--------------------------------|
|--------------------------------|-------------9----------10------|
|-9-----------------------8---9--|11------------------------------|
|--------------------------------|--------------------------------|
|--------------------------------|--------------------------------|
|--------------------------------|--------------------------------|
|
| H.                      E   E    H               Q       Q      
|--------------------------------|--------------------------------|
|--------------------------------|-------------------------7------|
|-6---------------------------6--|-8-----------9------------------|
|-------------------------9------|--------------------------------|
|--------------------------------|--------------------------------|
|--------------------------------|--------------------------------|
|
| W                               +W
|--------------------------------|--------------------------------|
|--------------------------------|--------------------------------|
|--------------------------------|--------------------------------|
|-7------------------------------|(7)-----------------------------|
|-7------------------------------|(7)-----------------------------|
|-5------------------------------|(5)-----------------------------|


  Gtr 3,4

  W                                W
|12------------------------------|11------------------------------|
|--------------------------------|--------------------------------|
|--------------------------------|--------------------------------|
|--------------------------------|--------------------------------|
|--------------------------------|--------------------------------|
|--------------------------------|--------------------------------|
|
| Q       E   E   E   E   E   E    Q       E   E   Q       E   E  
|--------------------------------|--------------------------------|
|--------------------------------|--------------------------------|
|--------------------------------|--------------------------------|
|-9------------------------------|-6---------------9--------------|
|-9-------9---9---9---9---9---9--|-6-------6---6---9-------9---9--|
|-7-------7---7---7---7---7---7--|-4-------4---4---7-------7---7--|


  Gtr 2,3,4

  w                                w
|--------------------------------|--------------------------------|
|--------------------------------|--------------------------------|
|--------------------------------|--------------------------------|
|--------------------------------|--------------------------------|
|--------------------------------|--------------------------------|
|--------------------------------|--------------------------------|
|
| Gtr 1
|
| Q       E   E   E   E   E   E    E   E   E   E   E   E   E   E  
|--------------------------------|--------------------------------|
|--------------------------------|--------------------------------|
|--------------------------------|--------------------------------|
|-4-----------2-----------2------|-----2-------2-------2---1------|
|-4------------------------------|-----------------------------4--|
|-2-------2-------2---2-------2--|-2-------2-------2--------------|
         PM      PM....      PM.....      PM      PM


  Gtr 4

  H.                     +E   E    H.                      E   e  
|--------------------------------|-7------------------------------|
|-5----------------------(5)--4--|-------------------------4------|
|--------------------------------|--------------------------------|
|--------------------------------|--------------------------------|
|--------------------------------|--------------------------------|
|--------------------------------|--------------------------------|
|
| Gtr 1,2
|
| W                               +W
|--------------------------------|--------------------------------|
|--------------------------------|--------------------------------|
|-2------------------------------|(2)-----------------------------|
|-2------------------------------|(2)-----------------------------|
|-0------------------------------|(0)-----------------------------|
|--------------------------------|--------------------------------|


  H.                     +E   E    W
|--------------------------------|-7------------------------------|
|-5----------------------(5)--4--|--------------------------------|
|--------------------------------|--------------------------------|
|--------------------------------|--------------------------------|
|--------------------------------|--------------------------------|
|--------------------------------|--------------------------------|
|
| W                                W
|--------------------------------|--------------------------------|
|--------------------------------|--------------------------------|
|--------------------------------|-6------------------------------|
|-6------------------------------|-6------------------------------|
|-6------------------------------|-4------------------------------|
|-4------------------------------|--------------------------------|


  H              +E   E   E   E    H.                      E   e  
|-4--------------(4)--4---5---4--|--------------------------------|
|--------------------------------|-5-----------------------0------|
|--------------------------------|--------------------------------|
|--------------------------------|--------------------------------|
|--------------------------------|--------------------------------|
|--------------------------------|--------------------------------|
|
| Gtr 2
|
| Q       E   E   e   E   E   E    E   E   E   E   E   E   E   E  
|--------------------------------|--------------------------------|
|--------------------------------|--------------------------------|
|--------------------------------|--------------------------------|
|-7------------------------------|--------------------------------|
|-7-------7---7-------7---7---7--|-7---7---7---7---7---7---7---7--|
|-5-------5---5-------5---5---5--|-5---5---5---5---5---5---5---5--|
|        PM          PM....       PM........      PM............
|
| Gtr 1
|
| Q       E   E   E   E   E   E    E   E   E   E   E   E   E   E  
|--------------------------------|--------------------------------|
|--------------------------------|--------------------------------|
|--------------------------------|--------------------------------|
|-7------------------------------|--------------------------------|
|-7-------7---7---7---7---7---7--|-7---7---7---7---7---7---7---7--|
|-5-------5---5---5---5---5---5--|-5---5---5---5---5---5---5---5--|
         PM.....................................................


  H              +E   E   E   E    E   e   E   e   E   e   E   e  
|-4--------------(4)--4---5---4--|-7-------4----------------------|
|--------------------------------|-----------------5-------7------|
|--------------------------------|--------------------------------|
|--------------------------------|--------------------------------|
|--------------------------------|--------------------------------|
|--------------------------------|--------------------------------|
|
| Q       E   E   e   E   E   E    E   e   E   e   E   e   E   e
|--------------------------------|--------------------------------|
|--------------------------------|--------------------------------|
|--------------------------------|-4-------6----------------------|
|-6------------------------------|-4-------6-------7-------6------|
|-6-------6---6-------6---6---6--|-2-------4-------7-------6------|
|-4-------4---4-------4---4---4--|-----------------5-------4------|
|        PM          PM........
|
| Q       E   E   E   E   E   E    E   e   E   e   E   e   E   e
|--------------------------------|--------------------------------|
|--------------------------------|--------------------------------|
|--------------------------------|-4-------6----------------------|
|-6------------------------------|-4-------6-------7-------6------|
|-6-------6---6---6---6---6---6--|-2-------4-------7-------6------|
|-4-------4---4---4---4---4---4--|-----------------5-------4------|
         PM....................


  H.                     +E   E    H.                      E   e  
|--------------------------------|-7------------------------------|
|-5----------------------(5)--4--|-------------------------4------|
|--------------------------------|--------------------------------|
|--------------------------------|--------------------------------|
|--------------------------------|--------------------------------|
|--------------------------------|--------------------------------|
|
| Gtr 1,2
|
| W                               +W
|--------------------------------|--------------------------------|
|--------------------------------|--------------------------------|
|--------------------------------|--------------------------------|
|-7------------------------------|(7)-----------------------------|
|-7------------------------------|(7)-----------------------------|
|-5------------------------------|(5)-----------------------------|


  H.                     +E   E    Q.         +E  +H              
|--------------------------------|-7----------b9--r7-----~---~----|
|-5---------------------------4--|--------------------------------|
|--------------------------------|--------------------------------|
|--------------------------------|--------------------------------|
|--------------------------------|--------------------------------|
|--------------------------------|--------------------------------|
|
| W                                W
|--------------------------------|--------------------------------|
|--------------------------------|--------------------------------|
|--------------------------------|-6------------------------------|
|-6------------------------------|-6------------------------------|
|-6------------------------------|-4------------------------------|
|-4------------------------------|--------------------------------|


  H              +E   E   E   E    H.                      E   e  
|-4-------------------4---5---4--|--------------------------------|
|--------------------------------|-5-----------------------0------|
|--------------------------------|--------------------------------|
|--------------------------------|--------------------------------|
|--------------------------------|--------------------------------|
|--------------------------------|--------------------------------|
|
| Gtr 2
|
| Q       E   E   e   E   E   E    E   E   E   E   E   E   E   E  
|--------------------------------|--------------------------------|
|--------------------------------|--------------------------------|
|-5------------------------------|--------------------------------|
|-5-------5---5-------5---5---5--|-5---5---5---5---5---5---5---5--|
|-3-------3---3-------3---3---3--|-3---3---3---3---3---3---3---3--|
|--------------------------------|--------------------------------|
|        PM          PM....       PM........      PM............
|
| Gtr 1
|
| Q       E   E   E   E   E   E    E   E   E   E   E   E   E   E  
|--------------------------------|--------------------------------|
|--------------------------------|--------------------------------|
|-5------------------------------|--------------------------------|
|-5-------5---5---5---5---5---5--|-5---5---5---5---5---5---5---5--|
|-3-------3---3---3---3---3---3--|-3---3---3---3---3---3---3---3--|
|--------------------------------|--------------------------------|
         PM.....................................................


  H              +E   E   E   E    E   e   E   e   E   e   E   e
|-4--------------(4)--4---5---4--|-7-------4----------------------|
|--------------------------------|-----------------5-------7------|
|--------------------------------|--------------------------------|
|--------------------------------|--------------------------------|
|--------------------------------|--------------------------------|
|--------------------------------|--------------------------------|
|
| Q       E   E   e   E   E   E    E   e   E   e   E   e   E   e
|--------------------------------|--------------------------------|
|--------------------------------|--------------------------------|
|-4------------------------------|---------4-------2--------------|
|-4-------4---4-------4---4---4--|-2-------4-------2-------6------|
|-2-------2---2-------2---2---2--|-2-------2-------0-------6------|
|--------------------------------|-0-----------------------4------|
|        PM          PM........
|
| Q       E   E   E   E   E   E    E   e   E   e   E   e   E   e
|--------------------------------|--------------------------------|
|--------------------------------|--------------------------------|
|-4------------------------------|---------4-------2--------------|
|-4-------4---4---4---4---4---4--|-2-------4-------2-------6------|
|-2-------2---2---2---2---2---2--|-2-------2-------0-------6------|
|--------------------------------|-0-----------------------4------|
         PM....................


  Keyboard

  E   E   E   E   E   E   E   E    E   E   E   E   E   E   E   E  
|--------------------------------|--------------------------------|
|-5---4---0---5---4---0---5---4--|-0---5---4---0---5---4---0---4--|
|--------------------------------|--------------------------------|
|--------------------------------|--------------------------------|
|--------------------------------|--------------------------------|
|--------------------------------|--------------------------------|
|
| W                               +W
|--------------------------------|--------------------------------|
|-5---~---~---~---~---~---~---~--|(5)--~---~---~---~---~---~---~--|
|--------------------------------|--------------------------------|
|--------------------------------|--------------------------------|
|--------------------------------|--------------------------------|
|--------------------------------|--------------------------------|
|
| Q       E   E   e   E   E   E    E   E   E   E   E   E   E   E  
|--------------------------------|--------------------------------|
|--------------------------------|--------------------------------|
|--------------------------------|--------------------------------|
|-4------------------------------|--------------------------------|
|-4-------4---4-------4---4---4--|-4---4---4---4---4---4---4---4--|
|-2-------2---2-------2---2---2--|-2---2---2---2---2---2---2---2--|
|        PM          PM      PM.....      PM....       PM      PM
|
| Q       E   E   E   E   E   E    E   E   E   E   E   E   E   E  
|--------------------------------|--------------------------------|
|--------------------------------|--------------------------------|
|--------------------------------|--------------------------------|
|-4------------------------------|--------------------------------|
|-4-------4---4---4---4---4---4--|-4---4---4---4---4---4---4---4--|
|-2-------2---2---2---2---2---2--|-2---2---2---2---2---2---2---2--|
         PM.....................................................


  E   E   E   E   E   E   E   E    E   E   E   E   E   E   E   E  
|--------------------------------|--------------------------------|
|-5---4---0---5---4---0---5---4--|-0---5---4---0---5---4---0---4--|
|--------------------------------|--------------------------------|
|--------------------------------|--------------------------------|
|--------------------------------|--------------------------------|
|--------------------------------|--------------------------------|
|
|+W                               +H.                      q 
|--------------------------------|--------------------------------|
|(5)------~-------~-------~------|(5)--------------~---\----------|
|--------------------------------|--------------------------------|
|--------------------------------|--------------------------------|
|--------------------------------|--------------------------------|
|--------------------------------|--------------------------------|
|
| Q       E   E   e   E   E   E    E   E   E   E   E   E   E   E  
|--------------------------------|--------------------------------|
|--------------------------------|--------------------------------|
|--------------------------------|--------------------------------|
|-6------------------------------|--------------------------------|
|-6-------6---6-------6---6---6--|-6---6---6---6---6---6---6---6--|
|-4-------4---4-------4---4---4--|-4---4---4---4---4---4---4---4--|
|        PM          PM      PM.....      PM....      PM      PM
|
| Q       E   E   E   E   E   E    E   E   E   E   E   E   E   E  
|--------------------------------|--------------------------------|
|--------------------------------|--------------------------------|
|--------------------------------|--------------------------------|
|-6------------------------------|--------------------------------|
|-6-------6---6---6---6---6---6--|-6---6---6---6---6---6---6---6--|
|-4-------4---4---4---4---4---4--|-4---4---4---4---4---4---4---4--|
         PM.....................................................


  E   E   E   E   E   E   E   E    E   E   E   E   E   E   E   E  
|--------------------------------|--------------------------------|
|-5---4---0---5---4---0---5---4--|-0---5---4---0---5---4---0---4--|
|--------------------------------|--------------------------------|
|--------------------------------|--------------------------------|
|--------------------------------|--------------------------------|
|--------------------------------|--------------------------------|
|
| Q       E   E   e   E   E   E    E   E   E   E   E   E   E   E  
|--------------------------------|--------------------------------|
|--------------------------------|--------------------------------|
|--------------------------------|--------------------------------|
|-7------------------------------|--------------------------------|
|-7-------7---7-------7---7---7--|-7---7---7---7---7---7---7---7--|
|-5-------5---5-------5---5---5--|-5---5---5---5---5---5---5---5--|
|        PM          PM      PM.....      PM....      PM      PM
|
| Q       E   E   E   E   E   E    E   E   E   E   E   E   E   E  
|--------------------------------|--------------------------------|
|--------------------------------|--------------------------------|
|--------------------------------|--------------------------------|
|-7------------------------------|--------------------------------|
|-7-------7---7---7---7---7---7--|-7---7---7---7---7---7---7---7--|
|-5-------5---5---5---5---5---5--|-5---5---5---5---5---5---5---5--|
         PM.....................................................


  W                                 W
|--------------------------------|---------------------------------|
|-7------------------------------|--5------------------------------|
|--------------------------------|---------------------------------|
|--------------------------------|---------------------------------|
|--------------------------------|---------------------------------|
|--------------------------------|---------------------------------|
|
| Gtr 3
|
| h.                      E   E     Q.          Q.          E   e  
|-------------------------9--11--|/12----------11------------------|
|--------------------------------|-------------------------12------|
|--------------------------------|---------------------------------|
|--------------------------------|---------------------------------|
|--------------------------------|---------------------------------|
|--------------------------------|---------------------------------|
|
| Q       E   E   e   E   E   E     Q       E   E   q       Q      
|--------------------------------|---------------------------------|
|--------------------------------|---------------------------------|
|--------------------------------|---------------------------------|
|-9------------------------------|--7------------------------------|
|-9-------9---9-------9---9---9--|--7-------7---7-----------7------|
|-7-------7---7-------7---7---7--|--5-------5---5-----------5------|
|        PM          PM      PM            PM
|
| Q       E   E   E   E   E   E     Q       E   E   E   E   E   E  
|--------------------------------|---------------------------------|
|--------------------------------|---------------------------------|
|--------------------------------|---------------------------------|
|-9------------------------------|--7------------------------------|
|-9-------9---9---9---9---9---9--|--7-------7---7---7---7---7---7--|
|-7-------7---7---7---7---7---7--|--5-------5---5---5---5---5---5--|
         PM....................            PM....................


  E   E   E   E   E   E   E   E     E   E   E   E   E   E   E   E  
|--------------------------------|---------------------------------|
|-5---4---0---5---4---0---5---4--|--0---5---4---0---5---4---0---4--|
|--------------------------------|---------------------------------|
|--------------------------------|---------------------------------|
|--------------------------------|---------------------------------|
|--------------------------------|---------------------------------|
|
| W                                +H.                     +E   e 
|--------------------------------|---------------------------------|
|10------------------------------|(10)----------------------\------|
|--------------------------------|---------------------------------|
|--------------------------------|---------------------------------|
|--------------------------------|---------------------------------|
|--------------------------------|---------------------------------|
|
| Q       E   E   e   E   E   E     E   E   E   E   E   E   E   E  
|--------------------------------|---------------------------------|
|--------------------------------|---------------------------------|
|--------------------------------|---------------------------------|
|-4------------------------------|---------------------------------|
|-4-------4---4-------4---4---4--|--4---4---4---4---4---4---4---4--|
|-2-------2---2-------2---2---2--|--2---2---2---2---2---2---2---2--|
|        PM          PM      PM......      PM....      PM      PM
|
| Q       E   E   E   E   E   E     E   E   E   E   E   E   E   E  
|--------------------------------|---------------------------------|
|--------------------------------|---------------------------------|
|--------------------------------|---------------------------------|
|-4------------------------------|---------------------------------|
|-4-------4---4---4---4---4---4--|--4---4---4---4---4---4---4---4--|
|-2-------2---2---2---2---2---2--|--2---2---2---2---2---2---2---2--|
         PM......................................................


  E   E   E   E   E   E   E   E    E   E   E   E   E   E   E   E  
|--------------------------------|--------------------------------|
|-5---4---0---5---4---0---5---4--|-0---5---4---0---5---4---0---4--|
|--------------------------------|--------------------------------|
|--------------------------------|--------------------------------|
|--------------------------------|--------------------------------|
|--------------------------------|--------------------------------|
|
| Q       E   E   e   E   E   E    E   E   E   E   E   E   E   E  
|--------------------------------|--------------------------------|
|--------------------------------|--------------------------------|
|--------------------------------|--------------------------------|
|-6------------------------------|--------------------------------|
|-6-------6---6-------6---6---6--|-6---6---6---6---6---6---6---6--|
|-4-------4---4-------4---4---4--|-4---4---4---4---4---4---4---4--|
|        PM          PM      PM.....      PM....      PM      PM
|
| Q       E   E   E   E   E   E    E   E   E   E   E   E   E   E  
|--------------------------------|--------------------------------|
|--------------------------------|--------------------------------|
|--------------------------------|--------------------------------|
|-6------------------------------|--------------------------------|
|-6-------6---6---6---6---6---6--|-6---6---6---6---6---6---6---6--|
|-4-------4---4---4---4---4---4--|-4---4---4---4---4---4---4---4--|
         PM.....................................................


  E   E   E   E   E   E   E   E    E   E   E   E   E   E   E   E  
|--------------------------------|--------------------------------|
|-5---4---0---5---4---0---5---4--|-0---5---4---0---5---4---0---4--|
|--------------------------------|--------------------------------|
|--------------------------------|--------------------------------|
|--------------------------------|--------------------------------|
|--------------------------------|--------------------------------|
|
| Q       E   E   e   E   E   E    E   E   E   E   E   E   E   E  
|--------------------------------|--------------------------------|
|--------------------------------|--------------------------------|
|--------------------------------|--------------------------------|
|-7------------------------------|--------------------------------|
|-7-------7---7-------7---7---7--|-7---7---7---7---7---7---7---7--|
|-5-------5---5-------5---5---5--|-5---5---5---5---5---5---5---5--|
|        PM          PM      PM.....      PM....      PM      PM
|
| Q       E   E   E   E   E   E    E   E   E   E   E   E   E   E  
|--------------------------------|--------------------------------|
|--------------------------------|--------------------------------|
|--------------------------------|--------------------------------|
|-7------------------------------|--------------------------------|
|-7-------7---7---7---7---7---7--|-7---7---7---7---7---7---7---7--|
|-5-------5---5---5---5---5---5--|-5---5---5---5---5---5---5---5--|
         PM.....................................................


  W                               +W
|--------------------------------|--------------------------------|
|-7------------------------------|(7)-----------------------------|
|--------------------------------|--------------------------------|
|--------------------------------|--------------------------------|
|--------------------------------|--------------------------------|
|--------------------------------|--------------------------------|
|
| Q       E   E   e   E   E   E    Q       E   E   e   E   E   E  
|--------------------------------|--------------------------------|
|--------------------------------|--------------------------------|
|--------------------------------|--------------------------------|
|-9------------------------------|-6------------------------------|
|-9-------9---9-------9---9---9--|-6-------6---6-------6---6---6--|
|-7-------7---7-------7---7---7--|-4-------4---4-------4---4---4--|
|        PM          PM      PM           PM          
|
| Q       E   E   E   E   E   E    Q       E   E   E   E   E   E  
|--------------------------------|--------------------------------|
|--------------------------------|--------------------------------|
|--------------------------------|--------------------------------|
|-9------------------------------|-6------------------------------|
|-9-------9---9---9---9---9---9--|-6-------6---6---6---6---6---6--|
|-7-------7---7---7---7---7---7--|-4-------4---4---4---4---4---4--|
         PM....................           PM....................


  Gtr 4

  Q       E   E   Q       E   E    H              +E   E   E   E  
|-----------------7--------------|--------------------------------|
|-5-------0---4-----------0---4--|-5--------------(5)--5---0---4--|
|--------------------------------|--------------------------------|
|--------------------------------|--------------------------------|
|--------------------------------|--------------------------------|
|--------------------------------|--------------------------------|
|
| Gtr 1,2
|
| W                               +W
|--------------------------------|--------------------------------|
|--------------------------------|--------------------------------|
|--------------------------------|--------------------------------|
|-7------------------------------|(7)-----------------------------|
|-7------------------------------|(7)-----------------------------|
|-5------------------------------|(5)-----------------------------|


  Q       E   E   e   E   E   E    H              +E   E   E   E  
|-------------7-------5---4------|--------------------------------|
|-5-------0-------------------7--|-5--------------(5)--4---5---7--|
|--------------------------------|--------------------------------|
|--------------------------------|--------------------------------|
|--------------------------------|--------------------------------|
|--------------------------------|--------------------------------|
|
| W                               +W
|--------------------------------|--------------------------------|
|--------------------------------|--------------------------------|
|--------------------------------|--------------------------------|
|-9------------------------------|(9)-----------------------------|
|-9------------------------------|(9)-----------------------------|
|-7------------------------------|(7)-----------------------------|


 a Q      +Q      +H               +H               E   e   E   E  
|---------------------------------|--------------------------------|
|7b9------r7---b---9--------------|(9)--------------9--------------|
|---------------------------------|-------------------------8---6--|
|---------------------------------|--------------------------------|
|---------------------------------|--------------------------------|
|---------------------------------|--------------------------------|
|
|  W                               +W
|---------------------------------|--------------------------------|
|---------------------------------|--------------------------------|
|--6------------------------------|(6)-----------------------------|
|--6------------------------------|(6)-----------------------------|
|--4------------------------------|(4)-----------------------------|
|---------------------------------|--------------------------------|


  Q       E   H               E    W
|--------------------------------|--------------------------------|
|--------------------------------|--------------------------------|
|-8-------9---6---------------6--|-4------------------------------|
|--------------------------------|--------------------------------|
|--------------------------------|--------------------------------|
|--------------------------------|--------------------------------|
|
| W                                W
|--------------------------------|--------------------------------|
|--------------------------------|--------------------------------|
|--------------------------------|--------------------------------|
|-7------------------------------|-9------------------------------|
|-7------------------------------|-9------------------------------|
|-5------------------------------|-7------------------------------|


  Q       E   E   Q       E   E    H              +E   E   E   E  
|-----------------7--------------|--------------------------------|
|-5-------0---4-----------0---4--|-5--------------(5)--5---0---4--|
|--------------------------------|--------------------------------|
|--------------------------------|--------------------------------|
|--------------------------------|--------------------------------|
|--------------------------------|--------------------------------|
|
| Gtr 2
|
| Q       E   E   E   E   E   E    E   E   E   E   E   E   E   E  
|--------------------------------|--------------------------------|
|--------------------------------|--------------------------------|
|--------------------------------|--------------------------------|
|-7------------------------------|--------------------------------|
|-7-------7---7---7---7---7---7--|-7---7---7---7---7---7---7---7--|
|-5-------5---5---5---5---5---5--|-5---5---5---5---5---5---5---5--|
|        PM      PM........       PM      PM      PM
|
| Gtr 1
|
| Q       E   E   E   E   E   E    E   E   E   E   E   E   E   E  
|--------------------------------|--------------------------------|
|--------------------------------|--------------------------------|
|--------------------------------|--------------------------------|
|-7------------------------------|--------------------------------|
|-7-------7---7---7---7---7---7--|-7---7---7---7---7---7---7---7--|
|-5-------5---5---5---5---5---5--|-5---5---5---5---5---5---5---5--|
         PM.....................................................


  Q       E   E   e   E   E   E    H              +E   E   E   E  
|-------------7-------5---4------|--------------------------------|
|-5-------0-------------------7--|-5--------------(5)--4---5---7--|
|--------------------------------|--------------------------------|
|--------------------------------|--------------------------------|
|--------------------------------|--------------------------------|
|--------------------------------|--------------------------------|
|
| Q       E   E   E   E   E   E    E   E   E   E   E   E   E   E  
|--------------------------------|--------------------------------|
|--------------------------------|--------------------------------|
|--------------------------------|--------------------------------|
|-9------------------------------|--------------------------------|
|-9-------9---9---9---9---9---9--|-9---9---9---9---9---9---9---9--|
|-7-------7---7---7---7---7---7--|-7---7---7---7---7---7---7---7--|
|        PM      PM........       PM      PM      PM
|
| Q       E   E   E   E   E   E    E   E   E   E   E   E   E   E  
|--------------------------------|--------------------------------|
|--------------------------------|-------
comments
We did not receive enough feedback on this tab! Please rate:
1 2 3 4 5
I want to post or [tab]
guest
You may want to rate the tab now too:
select rating
Please do not post tabs as comments. Select "correction" instead!