Oops, an error
Loading. Please wait.

O Tab

24,705 views 93 this week
3 commentsread comments
1 2 3 4 5
excellent!
x 6
Autoscroll
+/-
esc
set tempo
stop
Contributor
Hey! There's an official Ultimate Guitar app which is ideal
for learning songs when you're away from computer. Get the app
WARNING: You are trying to view
                                    content from Ultimate-Guitar.com
                                    in an unauthorized application,
                                    which is prohibited.

                                    Please use an official Ultimate
                                    Guitar Tabs application for iPhone,
                                    iPad or Android to access legitimate
                                    chords, guitar, bass, and drum tabs
                                    from Ultimate-Guitar.com database.

                                    Type "ultimate guitar tabs" in Apple
                                    App Store's or Android Market's
                                    search to find the application.
ARTIST:Damien Rice
ALBUM: O

I have compiled all of the circulating files from the net into this one
overview file and tidied them up a little bit. 
If you have anything to add, mail it to me and I'll update it.  
Original credit is left intact.
In songs with capo, everything is relative to the capo.


1. Delicate
2. Volcano
3. The Blower's Daughter
4. Cannonball
5. Older Chests
6. Amie
7. Cheers Darlin'
8. Cold Water
9. I Remember
10. Eskimo
11. Prague (hidden track)
12. Silent Night (hidden track)

-------------------------------------------------------------
1- DELICATE

TUNING: STANDARD
CAPO:   5

Tab by: blue7107 (Ultimate-Guitar user)

Fingerpicking style.

Key:	\ strum down
	/ strum up
	h hammer on
	1 thumb
	2 index finger
	3 middle finger
	4 ring finger
	5 little finger

Riff 1:

[3/4]
e]-----|-----------------------|----------|-----------------------|
B]-----|------1------1------1--|----------|-----------------------|
G]-----|--0h2----0h2----0h2----|-------0--|------0------0------0--|
D]-----|--3------3------3------|--0h2--2--|--0h2----0h2----0h2----|
A]-----|-----------------------|--3-------|--3------3------3------|
E]--1--|-----------------------|----------|-----------------------|  (2X)
    1     3   4  3   4  3   4     3    4     3   4  3   4  3   4

e]-----|---------|-----|---------|-----|---------|-----------|
B]-----|--1-1-1--|--1--|--1-1-1--|--0--|--0-0-0--|--0-0-0-0--|
G]-----|--0-0-0--|--0--|--0-0-0--|--0--|--0-0-0--|--0-0-0-0--|
D]-----|--0-0-0--|--0--|--0-0-0--|--0--|--0-0-0--|--0-0-0-0--|
A]--2--|--2-2-2--|--2--|--2-2-2--|--2--|--2-2-2--|--2-2-2-2--|
E]--3--|--3-3-3--|--3--|--3-3-3--|--3--|--3-3-3--|--3-3-3-3--|
    3     / \ /     \     / \ /     \     / \ /     \ \ / \


Riff 2:
[3/4]
e]-----|---------|-----|---------|-----|---------|-----------|
B]--1--|--1-1-1--|--1--|--1-1-1--|--1--|--1-1-1--|--1-1-1-1--|
G]--2--|--2-2-2--|--2--|--2-2-2--|--2--|--2-2-2--|--2-2-2-2--|
D]--3--|--3-3-3--|--3--|--3-3-3--|--3--|--3-3-3--|--3-3-3-3--|
A]--3--|--3-3-3--|--3--|--3-3-3--|--3--|--3-3-3--|--3-3-3-3--|
E]--1--|--1-1-1--|--1--|--1-1-1--|--1--|--1-1-1--|--1-1-1-1--|
    \     / \ /     \     / \ /     \     / \ /     \ \ / \

e]-----|---------|-----|---------|-----|---------|-----------|
B]--1--|--1-1-1--|--1--|--1-1-1--|--1--|--1-1-1--|--1-1-1-1--|
G]--0--|--0-0-0--|--0--|--0-0-0--|--0--|--0-0-0--|--0-0-0-0--|
D]--2--|--2-2-2--|--2--|--2-2-2--|--2--|--2-2-2--|--2-2-2-2--|
A]--3--|--3-3-3--|--3--|--3-3-3--|--3--|--3-3-3--|--3-3-3-3--|
E]-----|---------|-----|---------|-----|---------|-----------|
    \     / \ /     \     / \ /     \     / \ /     \ \ / \



INTRO:   Riff 1


VERSE 1: Riff 1

     We might kiss when we are alone.       
     When nobody's watching,
     we might take it home.
     We might make out when nobody's there.
     It's not that we're scared,
     it's just that it's delicate


CHORUS:  Riff 2

     So why do you fill my sorrow
     with the words you've borrowed
     from the only place you've known?
     And why do you sing Hallelujah
     if it means nothing to ya?
     Why do you sing with me at all?


VERSE 2: Riff 1

     We might live like never before.
     When there's nothing to give,
     well how can we ask for more
     We might make love in some sacred place.
     The look on your face is delicate


CHORUS:  Riff 2

     So why do you fill my sorrow
     With the words you've borrowed
     From the only place you've known
     And why do you sing Hallelujah
     if it means nothing to ya?
     Why do you sing with me at all?


Chorus:  Riff 1

     So why do you fill my sorrow
     with the words you've borrowed
     from the only place you've known?
     And why do you sing Hallelujah
     if it means nothing to ya?
     Why do you sing with me at all?

-------------------------------------------------------------
2- VOLCANO

TUNING: STANDARD
CAPO:   NONE

Tab by: jimbohonkey (UG user)

The G between F and Am i there to connect the two chords,
so hit it quickly.


INTRO:
Am	Am	Am	Am   G
F	F	F	F    G


VERSE:
Am	Am	     Am	  	Am  G
  Don't hold yourself like that
F	F		F	F   G
  You'll hurt your knees
Am      Am	Am            Am   G
  I kissed your mouth and back
F	F         F      F
  That's all I need

G       G            F          F
  Don't build your world around
G    G          F         F (tacet)
  Volcanoes melt you down


CHORUS:
       Am       Am       F     F
What I am to you, is not real
       Am       Am           F     F
What I am to you, you do not need
       Am       Am                F        F
What I am to you, is not what you mean to me
            Am        Am                      F        F
You give me miles and miles of mountains, and I ask for the sea


VERSE:
Don't throw yourself like that
In front of me
I kissed your mouth your back
Is that all you need?
Don't drag my love around
Volcanoes melt me down


CHORUS:
       Am       Am       F     F
What I am to you, is not real
       Am       Am           F     F
What I am to you, you do not need
       Am       Am                F        F
What I am to you, is not what you mean to me
            Am        Am                      F        F
You give me miles and miles of mountains, and I ask for the sea


BRIDGE:
           C
for what I give to you
                 E
Is just what i'm going through
              Am
This is nothing new
                 F
No no just another phase of finding
           C
what I really need
        E
Is what makes me bleed
           Am
And like a new disease
            F
Lord, she's still too young to treat

Outro and end.

-------------------------------------------------------------
3- THE BLOWER'S DAUGHTER

TUNING: STANDARD
CAPO:   NONE

Tab by: Chilipepper465@hotmail.com

       CHORD CHART:
E	  022100       
As	  577600                                                             
Bs        799800	                                                 
C#m       x46600
G#m       466444
F#m       244200
F#        244322
Bs2       x24422 
C#        x46664
D#m       x68876
B         x24442
A#m       x13321

VERSE:
          E
And so it is
	             As
Just like you said it would be
	     Bs
Life goes easy on me
As	   E
Most of the time
    E
And so it is
	  As
The shorter story
	  Bs
No love, no glory
	  C#m
No hero in her sky


CHORUS:
	A
I can\'t take my eyes off of you
	   G#m
I can\'t take my eyes off you
	   F#m
I can\'t take my eyes off of you
	   E
I can\'t take my eyes off you
	   As            Bs
I can\'t take my eyes off you
	   As                        
I can\'t take my eyes...As, Bs, E


VERSE:
E
And so it is
	E                As     
Just like you said it should be
	As                Bs
We'll both forget the breeze
As	    E
Most of the time
E
And so it is
E	         As
The colder water
As	              Bs
The blower's daughter
	C#m
The pupil in denial


CHORUS:
          As
I can't take my eyes off of you
	   G#m
I can't take my eyes off you
	   F#m
I can't take my eyes off of you
	   E
I can't take my eyes off you
	   As             Bs
I can't take my eyes off you
	   As (slide to Bs)                      
I can't take my eyes...


BRIDGE:    
F#
Oooooooooohh
F#              Bs2
Did I say that I loathe you?
                G#m  
Did I say that I want to
C#	        D#m
Leave it all behind?


OUTRO:       
              B
I can\'t take my mind off of you
	      A#m
I can\'t take my mind off you
	      G#m
I can\'t take my mind off of you
	      F#
I can\'t take my mind off you
	    B         C#
I can\'t take my mind off you
	B
I can\'t take my mind...
	B
My mind...my mind...

'Til I find somebody new

-------------------------------------------------------------
4- CANNONBALL

TUNING: STANDARD
CAPO:   6

Tab by: Andrew Biles (andrewbiles@hotmail.com)

INTRO/VERSE:

|-------------------------------------------
|---------------------------3-3-3-3-3-------
|----0-0-0-0-0-0-0----------0-0-2-2-0h2p0-0-
|----5-5-5-5-4-2-0h2p0------0-0-0-0-0-----2-
|----2-2-2-2-2-3-3-----0h2--2-2-x-x-x-----2-
|-0--------------------3----3---2-2-2-----0- x2

|---------------------------------------0-0--0-0-0-0-0-0-0-
|-0-0-0-0-0---0-0-----3-3-3-3-3-3---3/5-0-1--1-1-1-1-1-1-1-
|-4-4-4-4-4h5-4-0h2p0-0-0-0-2-2-2p0-2/4-0-0--0-0-0-0-0-0-0-
|-0-0-0-0-0---0-0-----0-0-0-0-0-0---0-----2--2-2-2-2-2-2-2-
|-2-2-2-2-2---2-2-----2-2-2-x-x-x---------3--3-3-3-3-3-3-3-
|---------------------3-3---2-2-2--------------------------

-----------0---0-0-0-0-0-0-0-|
-----------1/3-3-3-3-3-3-3-3-|
---------0-0---0-0-0-0-0-0-0-|
-----0h2---2/4-4-4-4-4-4-4-4-|
-0h3-------3/5-5-5-5-5-5-5-5-|
---------------------2-2-2-2-|

CHORUS:
|-----------------------------
|-3----------------------3----
|-0----------------------2----
|-0----------------------0----
|-2----------------------x----
|-3----------------------2----
    Stones, taught me to fly
    Love, taught me  to  lie
    Life, taught me  to  die

|--------------0-----------0-------------------------------0--------
|--------------0-----------3-------------------------------3--------
|--------------0-----------0------------------------0--0---0--------
|--------------2-----------2-------------------0h2-----2/4-4--------
|--------------3-----------3-------------0h3-----------3/5-5--------
|---------------------------------------------------------------0---
  And it's not hard to fall     When you float like a    cannonball

The chorus lyrics are slightly changed towards the end and he plays the second line of it
3 times at the end, so you'll have to work out the timing for the extra lyrics, but it's
pretty basic.  There's a couple of rests thrown in there, just play it a few times and
you'll see what I mean.  After that, just play the intro/verse part over, it's slightly
different again, but not by much.

Lyrics:

Still a little bit of your taste in my mouth
Still a little bit of you laced with my doubt
Still a little hard to say what's going on

Still a little bit of your ghost your witness
Still a little BIT of your face I haven't kissed
You step a little closer EACH DAY
THAT I can't SAY what's going on

Stones taught me to fly
Love taught me to lie
Life taught me to die
So it's not hard to fall
When you float like a cannonball

Still a little bit of your song in my ear
Still a little bit of your words I long to hear
You step a little closer TO ME
So close that I can't see what's going on

Stones taught me to fly
Love taught me to lie
Life taught me to die
So it's not hard to fall
When you float like a cannon

Stones taught me to fly
Love taught me to cry
So come on courage!
Teach me to be shy
'Cause it's not hard to fall
And I don't WANNA scare her
It's not hard to fall
And I don't wanna lose
It's not hard to grow
When you know that you just don't know

-------------------------------------------------------------
5- OLDER CHESTS

TUNING: STANDARD
CAPO:   NONE

Tab by: KustomJarvis (UG user - jarvis0819@yahoo.com)

This a great song, but with a ton of ghost notes. I threw in everything I heard, so 
will probably be a few notes that might seem unnecessary in some parts. Play what sounds 
better to you.
Let ring throughout and fingerpick


 [intro/verse] [x3]
e|-----------------------------------------------|
B|---------1--------------1-----1-------0--------|
G|------0--------------------0----0---0---0------|
D|------------2----------------------------------|
A|---3-------------------------------------------|
E|---------------------0--1--------3-------------|

e|-----------------------------------------------|
B|---------1----------------------------0--------|
G|------0----------------------(0)----0---0------|
D|------------2----------------------------------|
A|---3---------------------(3)-------------------|
E|---------------------0-1---------3-------------|

e|-----------------------------------------------|
B|---------1--------------------1-------(1)------|
G|-----(2)------------------(0)------(0)---------|
D|-----------2-----------------------------------|
A|---0-------------------0-2-------3-------------|
E|-----------------------------------------------|

e|-----------------------------------------------|
B|---------(1)-------------1-----------1---------|
G|-----(0)--------------0-----0-----0-----0------|
D|---3---------3--(3)3---------------------------|
A|-----------------------------------------------|
E|-------------------------------3---------------|

e|-----------------------------------------------|
B|---------1-------------------1-------(1)-------|
G|------0--------------------0---0---0----0------|
D|------------2----------------------------------|
A|---3-------------------------------------------|
E|--------------------(0)-1--------3-------------|

e|-----------------------------------------------|
B|---------1-------------------1--------1--------|
G|------0--------------------0---0----0---0------|
D|------------2----------------------------------|
A|---3-------------------------------------------|
E|---------------------0--1--------3-------------|

e|-----------------------------------------------|
B|---------1--------------------1-------1--------|
G|------2---------------------0------0-----------|
D|-----------------------------------------------|
A|---0-------------------0-2-------3-------------|
E|-----------------------------------------------|

e|-------------------------------------------------------|
B|-----------1----(1)-------------1-------------1--------|
G|--------0----------(0)-------0-------------0-----0-----|
D|---0-3--------3---------3-3--------3-------------------|
A|-------------------------------------------------------|
E|----------------------------------------3--------------|

   Older chests reveal themselves
   like a crack in the wall,
   starting small,
   grow with time.

   And we all seem to need the help
   of someone else,
   to mend that shelf
   with too many books.
   Read me your favorite line.

   Papa went to other lands,
   he found someone who understands
   the ticking,
   the western man's need to cry.

   He came back the other day.
   Some things in life may change,
   and some things, they stay the same.
   Like time.

 [chorus]
                         There's always time
                         So pass me by,
e|-----------0---------------------------------------------------------------|
B|-------1-----1----1---------1-----------1----------------------------------|
G|-----0---0---------------0-----0-----0-----0-------------------------------|
D|----------------2----------------------------------------------------------|
A|---3-----------------------------------------------------------------------|
E|-----------------------1-----------3---------------------------------------|

                         on my mind.
                         I'll be fine,
e|------------0--------------------------------------------------------------|
B|--------1-----1---1---------1-----------1----------------------------------|
G|------0------------------0-----0-----0-----0-------------------------------|
D|----------2-----2----------------------------------------------------------|
A|---3-----------------------------------------------------------------------|
E|-----------------------1-----------3---------------------------------------|

                        -
                        just give me time.
e|------------0------------0-------------------------------------------------|
B|--------1-----1--(1)-------1-(1)-------------------------------------------|
G|------0---0-----0-----------------(0)--------------------------------------|
D|---------------------------------------------------------------------------|
A|---0------------------0---------2-----3------------------------------------|
E|---------------------------------------------------------------------------|

e|---------------------------------------------------------------------------|
B|--------1-----------1------------------------------------------------------|
G|---------------------------------------------------------------------------|
D|---0h-3----(3)--3-------3--------------------------------------------------|
A|---------------------------------------------------------------------------|
E|---------------------------------------------------------------------------|


   Older gents sit on the fence,
   with a cap in hand,
   looking grim.
   They watch their city change.

   Children scream, or so it seems
   louder than before
   out a door, and into stores
   with bigger names.

   Mama tried to watch their faces
   but these kids, they lost their graces,
   and daddy lost at the races
   too many times.

   She broke down the other day.
   Some things in life may change,
   but some things, they stay the same.
   Like time.

   [chorus] [x2]
   End on C


| /  slide up
| \  slide down
| h  hammer-on
| p  pull-off
| ~  vibrato
| +  harmonic
| x  Mute note

-------------------------------------------------------------
6- AMIE

TUNING: STANDARD
CAPO:   2

In this case I mixed up two tabs to create a definitive one.
The original tabbers were: 
                            -acoustic_guy87 (UG user)
                            -HUGH3SY (UG user)

      CHORD CHART:
C       032010
C/B     020010
Am7     002010 
F       x33210
Dm      x00231
G       320033
Em      022000


INTRO:
C - C/B - Am7 - F

VERSE:
C                C/B
Nothing Unusual; nothing Strange
Am7                 F
Close to nothing at all...
Dm                     Am7
The same old scenario; the same old rain
F                         G
And there's no explosions here.
C                       C/B
Then something unusual; something strange
Am7                   F
Comes from nothing at all
Dm                Am7
I saw a spaceship fly by your window
F                       G
Did you see it dissapear?


CHORUS:
Am                  F
Amie come sit on my wall
     G                   C
And read me the story of O
Dm                         Em
And tell it like you still believe...
                    F
That the end of the century
         G
Brings a change for you and me

VERSE:
C                C/B
Nothing unusual; nothing's changed
Am7                        F
Just a little older; thats all
Dm
You know when you've found it
Am7
There's someting I've learned
F                                   G
Cause you feel it when they take it away
G
hey hey hey...
C                  C/B
Something unusual; something strange
Am                    F
Comes from nothing at all
     Dm                   Am
But I'm not a miracle and you are not a saint
      F                   G
Just another soldier on a road to nowhere


CHORUS:
Am                  F
Amie come sit on my wall
     G                   C
And read me the story of O
Dm                         Em
And tell it like you still believe...
                    F
That the end of the century
         G
Brings a change for you and me
Am                  F
Amie come sit on my wall
     G                   C
And read me the story of O
Dm                         Em
And tell it like you still believe...
                    F
That the end of the century
         G
Brings a change for you and me

---o---
It sucks playing this song by yourself at the end because you can't be playing a violin 
the same time... hell, I can't play the violin at all! So I tabbed out the violin part 
you. Just repeat this...

E----------3-------5--------7--8-5---3--------|
B(5)-5-3-----5-3------5-3----------1----------|
G--------5-------5--------5-------------------|
D---------------------------------------------|
A---------------------------------------------|
E---------------------------------------------|

-------------------------------------------------------------
7- CHEERS DARLIN'

TUNING: STANDARD
CAPO:   NONE

Tab by: Kris F. [krevace@hotmail.com]


INTRO & VERSES
==============
Played once for INTRO.
Am  Dm  G  Cm  Bm | Am  Dm  G  F  E

 
Pick Pattern:

    "Cheers darlin'      here's to you and your lover boy..."
     Am            Dm       G                   Cm    Bm
e|---------5----------5-------------------------------------|
B|---------5----------6-------------------------------------|
G|---------5--------7-7------------4------------------------|
D|------7--7-------7--7---------5------------------10---9---|
A|----7-----------5----------5-------------------10----9----|
E|--5---------------------3---------------------8-----7-----|


    "Cheers darlin'     I got years to wait around for you..."
     Am            Dm         G        F      E
e|---------5----------5-------------------------------------|
B|---------5----------6-------------------------------------|
G|---------5--------7-7------------4-------2-------1--------|
D|------7--7-------7--7----------5-------3-------2----------|
A|----7-----------5----------------------------2------------|
E|--5-------------------------3--------1-----0--------------|



Am            Dm
Cheers darlin'
G                      Cm    Bm
Here's to you and your lover boy
Am            Dm
Cheers darlin'
      G        F      E
I got years to wait around for you

Am            Dm
Cheers darlin'
             G              Cm    Bm
I've got your wedding bells in my ear
Am            Dm
Cheers darlin'
            G          F         E
You give me three cigarettes to smoke my tears away


And now the fun begins.

    "I..       ...die..      ..mention.."
e|--------------------------------------------------------------|
B|------------------6--8/10-------------------------------------|
G|-----5--7/ 9------7--9/10------4--5/7-------9--10/12--10---9--|
D|-----7--9/10---------------0---5--7/9------10--12/14--12--10--|
A|--0----------7--5---------------------------------------------|
E|-----------------------------3-----------8--------------------|

   "I..         ..lied..    ...kissed you..   ..running.."
e|------------------------------------------------------|
B|------------------6--8/10-----------------------------|
G|-----5--7/ 9------7--9/10------4--5/7------5--4---4---|
D|-----7--9/10---------------0---5--7/9------7--5---6---|
A|--0----------7--5-------------------------------------|
E|-----------------------------3------------------------|


"What am
    I..                      ..whisper.....piece..."
e|--------------------------------------------------------------|
B|------------------6--8/10-------------------------------------|
G|-----5--7/ 9------7--9/10------4--5/7-------9--10/12--10---9--|
D|-----7--9/10---------------0---5--7/9------10--12/14--12--10--|
A|--0----------7--5---------------------------------------------|
E|-----------------------------3-----------8--------------------|


"What am
    I..                      ..boy..          ..biggest.."
e|------------------------------------------------------|
B|------------------6--8/10-----------------------------|
G|-----5--7/ 9------7--9/10------4--5/7------5--4---4---|
D|-----7--9/10---------------0---5--7/9------7--5---6---|
A|--0----------7--5-------------------------------------|
E|-----------------------------3------------------------|


Am            Dm
Cheers darlin'
G                      Cm    Bm
Here's to you and your lover man
Am            Dm
Cheers darlin'
       G        F       E
I just hang around and eat from a can
Am            Dm
Cheers darlin'
G                            Cm   Bm
I got a ribbon of green on my guitar
Am            Dm
Cheers darlin'
        G        F         E
I got a beauty queen to sit not very far from here

-------------------------------------------------------------
8- COLD WATER

TUNING: STANDARD
CAPO:   5

This was entirely made by me! :) So...

Tab by: Nicolás Levy (UG user: acade365 - acade365@hotmail.com)

           CHORD CHART:
G            320033
G/F#         200033
Em/D         022033
Cadd9        032033
Am7          x02013
D            054030
Eb           6688xx or 668886
D*           5577xx or 557775

PIANO AT THE BEGINNING(with echo or loop):

e|-----|-----|-----|---------|
B|--0--|--0--|--0--|--0---0--|
G|--0--|-----|-----|---------|
D|-----|--4--|--2--|--0------|
A|-----|-----|-----|------3--|
E|-----|-----|-----|---------|


INTRO:
G - G/F# - Em/D - Cadd9

VERSE:
G          G/F#     Em/D            Cadd9
Cold, cold water surrounds me now
    G        G/F#        Em/D    Cadd9
And all I've got is your hand

CHORUS:
      Am7                       D
Lord, can you hear me now?
      Am7                       D
Lord, can you hear me now?
      Am7                       D
Lord, can you hear me now?
        (G)
Or am I lost?

VERSE:
G        G/F#     Em/D            Cadd9
No one's daughter allow me that
      G         G/F#       Em/D     Cadd9
And I can't let go of your hand

CHORUS:
      Am7                       D
Lord, can you hear me now?
      Am7                       D
Lord, can you hear me now?
      Am7                       D
Lord, can you hear me now?
        (G)
Or am I lost?

BRIDGE:
G      G/F#
ooo, I love you
                 Em/D
Don’t you know I love you
       Cadd9
And I always have
     Am   Em
Hallelu----jah
         Eb    D*
Will you come with me?

VERSE:
G          G/F#     Em/D            Cadd9
Cold, cold water surrounds me now
    G        G/F#        Em/D    Cadd9
And all I've got is your hand

CHORUS:
      Am7                       D
Lord, can you hear me now?
      Am7                       D
Lord, can you hear me now?
      Am7                       D
Lord, can you hear me now?
      Am7                       D
Aaaaahhhh..............

Am7 - D  'til end

-------------------------------------------------------------
9- I REMEMBER

TUNING: STANDARD
CAPO:   2

Tab by: J. McNeal (DistrustMankind@aol.com)


h = hammer
p = pull-off


::Verse 1 part 1::
---------------------------------|
-----------------------3---------|
------0------2-----------0-------|
---0-------0--------0------------|
---------------------------------|
-0-------2-------3---------------|
       \"I remember it well...\" 0:00 - 0:03


---------------------------------|
-----------3---------------3-----|
-------------0-------0-------0---|
---------2-------0h2-----0-------|
-0-2-2h3-------------------------|
-----------------------3---------|
\"The First time... that I saw\"  0:04 - 0:07.9

----------------------------------|
-----------3---------------3------|
-------------0-------0--------2---|
---------2-------0h2-----0------0-|
-0-2-2h3--------------------------|
-----------------------2----------|
\"Your head around the door\" 0:08 - 0:11.9


---------------------------------|
------3-----------3--------------|
--------2---2---0---0------0-----|
----0-----0------------0h2-------|
--3-----------3------------------|
--------2------------------------|
\"Cause mine stopped working\"  0:12 - 0:15.5


::Verse 1 part 2::
----------------------------------------|
------------3------3------3-------------|
----------------------------0-----------|
---------0------0------0----------------|
----------------------------------------|
------0------2------3-------------------|
\"I remember it well...\" 0:15.5 - 0:19.5


---------------------------------|
-----------3---------------3-----|
-------------0-------0-------0---|
---------2-------0h2-----0-------|
-0-2-2h3-------------------------|
-----------------------3---------|
\"There was wet in your hair\" 0:19.6 - 0:23.6


-------------------------------------|
-----------3---------------3---------|
-------------0-------0-------2-0h2-0-|
---------2-------0h2-----0-----------|
-0-2-2h3-----------------------------|
-----------------------2-------------|
\"I was stood in the stairs\" 0:23.7 - 0:27.3


----------------------------------|
------3------------3--------------|
--------2---2----0---0--------0---|
----0-----0--------------0h2------|
--3------------3------------------|
--------2-------------------------|
\"Cause time stopped moving\" 0:27.4 - 0:31.9


:::Chorus 1:::
---------------------------|
--------3------------3-----|
------0----------------0---|
----0--------------2-------|
-----------0-2-2h3---------|
--3------------------------|
\"Want you here tonight... want you here\" 0:32 - 0:35.8


----------------------------------|
---------------3------------3-----|
-----0-------0----------------0---|
-0h2-------0--------------2-------|
------------------0-2-2h3---------|
--------3-------------------------|
\"Cause I can\'t believe... what I\'ve found\" 0:35.9 - 0:39.5

-----------------------------------|
---------------3-------------3-----| < fix
-----0-2-----0-----------------0---|
-0h2-------0---------------2-------|
-------------------0-2-2h3---------|
-------2-3-------------------------|
\"Waaaaant. you here tonight... want you here\" 0:39.6 - 0:43.9

----------------------------------------|
---------------3------------3-------3---|
-----0-------0------------------------0-|
-0h2-------0--------------2----0h2------|
------------------0-2-2h3---------------|
--------3-------------------------------|
\"Nothin\' is... taking me down... down\" 0:43.9 - 0:50.5


--------------------------------|
-----3-------------3------------|
------------2--------0----------|
---0------0------0--------------|
--------------------------------|
-0------2------3----------------|
\"Down...\" 0:50.5 - 0:53.8


-------------------------------|
-----------3-------------------|
-------------0---------0-2-0---|
---------2-----0h2---0---------|
-0-2-2h3-----------3-----------|
-------------------------2-----|
\"...\" 0:53.8 - 0:58.5

::Verse 2 part 1::
--------------------------------|
-----3-------------3------------|
------------2--------0----------|
---0------0------0--------------|
--------------------------------|
-0------2------3----------------|
\"I remember it well...\" 0:58.9 - 1:01.9


---------------------------------|
-----------3---------------3-----|
-------------0-------0-------0---|
---------2-------0h2-----0-------|
-0-2-2h3-------------------------|
-----------------------3---------|
\"Taxied out... of a storm\" 1:01.9 - 1:05.5


------------------------------------|
-----------3-----------------3------|
-------------0-------0-----2---2----|
---------2-------0h2-----0-------0--|
-0-2-2h3----------------------------|
-----------------------2------------|
\"To watch you... perform\" 1:05.9 - 1:09


--------------------------------|
--------------------3-----------|
-------0------2---0---0-------0-|
-----0-----0--------------0h2---|
---3------------3---------------|
---------2----------------------|
\"And My Ships were... sailin\'\" 1:09.5 - 1:13.7


::Verse 2 part 2::
--------------------------------|
-----3-------------3------------|
------------2--------0----------|
---0------0------0--------------|
--------------------------------|
-0------2------3----------------|
\"I remember it well...\" 1:14 - 1:16.9


---------------------------------|
-----------3---------------3-----|
-------------0-------0-------0---|
---------2-------0h2-----0-------|
-0-2-2h3-------------------------|
-----------------------3---------|
\"I once stood in your... line\"  1:17 - 1:20.9


-----------------------------------|
-----------3-----------------3-----|
-------------0-------0-2---2---2---|
---------2-------0h2-----0-------0-|
-0-2-2h3---------------------------|
-----------------------------------|
\"And your mouth... your mouth\" 1:21 - 1:25.4

------------------------------------------------|
---------3----3-----3-----3-------------3-------|
-----0-2----0-----2---------0-----0-------2---2-|
---0--------------------2-----0h2-----0-----0---|
----------0-----2-----3-------------3-----------|
-3----------------------------------------------|
\"your mind...\" 1:25.5 - 1:33.5


:::Chorus 2:::
--------------------------|
-------3------------3-----|
-----0----------------0---|
---0--------------2-------|
----------0-2-2h3---------|
-3------------------------|
\"Want you here tonight... want you here\" 1:33.5 - 1:37.4


----------------------------------|
---------------3------------3-----|
-----0-------0----------------0---|
-0h2-------0--------------2-------|
------------------0-2-2h3---------|
--------3-------------------------|
\"Cause I can\'t believe... what I\'ve found\" 1:37.5 - 1:41.4

-----------------------------------|
---------------3-------------3-----|
-----0-2-----0-----------------0---|
-0h2-------0---------------2-------|
-------------------0-2-2h3---------|
---------3-------------------------|
\"Wannnnnt. you here tonight... want you here\" 1:41.5 - 1:45.9

---------------------------------------------|
---------------3------------3--------------3-|
-----0-------0----------------0----------0---|
-0h2-------0--------------2---------0h2------|
------------------0-2-2h3--------------------|
--------3------------------------------------|
\"Nothin\' is... taking me down... down\" 1:45.9 - 1:51.5


--------------------------------|
-------------------3------------|
-----0------2--------0----------|
---0------0------0--------------|
--------------------------------|
-0------2------3----------------|
\"Down...\" 1:51.6 - 1:55


------------------------|
-----------3------------|
-------------0-----0----|
---------2-----0h2---0--|
-0-2-2h3----------------|
------------------------|
\"...except you my love\" 1:55 - 2:00

--------------------------------|
-----3------3------3------------|
----------2----------0----------|
---0-------------0--------------|
--------------------------------|
-0------2------3----------------|
\"...\" 2:00.4 - 2:03.9


------------------------|
-----------3------------|
-------------0-----0----|
---------2-----0h2---0--|
-0-2-2h3----------------|
------------------------|
\"......except you my love\" 2:04 - 2:09

--------------------------|
-----3------3------3------|
---0------2----------0----|
-----------------0--------|
--------------------------|
-0------2------3----------|
\"...\" 2:09 - 2:12


-------------------------------|
-----------3-----------3-------|
-------------0-----0-----0-----|
---------2-----0h2---0-----0---|
-0-2-2h3---------------------2-|
-------------------------------|
\"...\"  2:12 - 2:18.4


I did all of that part as best as I could... the rest is sloppy...

Damien\'s Part:  (I think this is wrong... but somewhere close?)

----------------------------------------|
-0h1---1-0---1---1-0---1---0h1-0h1-1-1--|
-2-----------------------------2--------|
-2---2---------2---------2-----2--------|
-0---------0---------0------------------|
----------------------------------------|

------------------------------------------|
-1-----1---1-1-----1---1-0h1---1---1------|
-0---0-------0h2-2-------2---2------------|
-0h3-----3---3-------3---3-------3--------|
-3-----------------------3----------------|
------------------------------------------|

-1-----1---1-1-----1---1-1/3--3---3-3-3---3---|
-0-------0---0h1-1-------1/3----3---3-3---3---|
-0h2-2-------2-------2-------2------2-2h4-2---|
-3-----------3--------------------------------|
----------------------------------------------|
----------------------------------------------|

---------------------------------------------------|
--0h1-1--0h1-1--0h1-1------------------------------|
--0h2-2--0h2-2--0h2-2-0h1-1------------------------|
--0h2-2--0h2-2--0h2-2-0h2-2------------------------|
0-0---0--0---0--0---0-0h2-2------------------------|
----------------------0---0------------------------|


-------------------------------------------------------------
10- ESKIMO

TUNING: STANDARD
CAPO:   5

Tab by: LiamSki (UG user: LiamSsi)

INTRO:

   D U D U D U etc.         (D= downstroke, U= upstroke)
e|---0---0---0---0---0---0|---0---0---0---0---0---0|
B|---0---0---0---0---0---0|---0---0---0---0---0---0|
G|-0-0-0-0-0-0-0-0-0-0-0-0|-0-0-0-0-0-0-0-0-0-0-0-0|
D|-2-0-2-0-2-0-4-0-4-0-4-0|-2-0-2-0-2-0-2-0-2-4-4-0|
A|-2---2---2---5---5---5-3|-3---3---3---3---3-5-5--|
E|-0---0---0---0---0---0--|-0---0---0---0---0-0-0--|

e|---0---0---0---0---0---0|---0---0---0---0---0-----0|
B|---0---0---0---0---0---0|---0---0---0---0---0-----0|
G|-0-0-0-0-0-0-0-0-0-0-0-0|-0-0-0-0-0-0-0-0-0-0-0---0|
D|-2-0-2-0-2-0-4-0-4-0-4-0|-2-0-2-0-2-0-2-0-2-0-2/4-0|
A|-2---2---2---5---5---5-3|-3---3---3---3---3---3/5--|
E|-0---0---0---0---0---0--|-0---0---0---0---0---0----|

e|---0---0---0---0---0---0|---0---0---0---0---0---0|
B|---0---0---0---0---0---0|---0---0---0---0---0---0|
G|-0-0-0-0-0-0-0-0-0-0-0-0|-0-0-0-0-0-0-0-0-0-0-0-0|
D|-2-0-2-0-2-0-4-0-4-0-4-0|-2-0-2-0-2-0-2-0-2-0-2-0|
A|-2---2---2---5---5---5-3|-3---3---3---3---3---3--|
E|-0---0---0---0---0---0--|-0---0---0---0---0---0--|

e|-0-0-0-0-0-0-0-0-0-0-0-0|---0---0----5-----------|
B|-1-0-1-0-1-0-1-0-1-0-1-0|-3-0-3-0-3--3-----------|
G|-0-0-0-0-0-0-0-0-0-0-0-0|-0-0-0-0-0--0-----------|
D|-2-2-2-2-2-2-2-2-2-2-2-2|-4---4---4--4-----------|
A|-0---0---0---0---0---0--|-0---0---0--0-----------|
E|------------------------|------------------------|

It practically carries on this for the whole verse, you might have to change it around a little.

CHORUS:

e|------------------------|------3-------------------------|
B|-------3---3---------3--|------3---------------3---------|
G|-------0---0-------2-2-0|-0----2---0-----0-0---0---------| X3
D|-------2p0-0-------0-0-0|-0----0---0-----0-0h2-2-2h0-0---|
A|-2------------0--------0|-2----------2h3-------------0---|
E|-3------------2---------|-0------------------------------|

e|----3---------------|
B|----3----3-3-0------|
G|----0----2-2-0------|
D|---------0-0-0------|
A|--------------------|
E|-3-----2--------0---|


Chords used during opera vocal:

    C  G/B  Am7 F9
e|--3--------0---3---------|
B|--3---3----0---3---------|
G|--0---2----0---0---------|   <--- takes up 2 bars
D|--0---0----2---3---------|
A|--3---0----2---2---------|
E|--2---2----0-------------|

-------------------------------------------------------------
11- PRAGUE (Hidden Track)

TUNING: STANDARD
CAPO:   NONE

Tab by: Sam Ghods (ksbsss123jr@hotmail.com)

This tab is a result of listening to the album as well as watching
live recordings such as the one at KCRW.com. The first bit is an
exact transcription of the first 32 measures. That should give you
a good enough idea of how to play the basic melody and where to put
your hands... from there, you can just improvise the exact melody
(as Damien does during live performances). I've also included some
of one of the electric guitar parts, and the chords Damien uses for
the main chorus section. Both the verse riff and the chorus chords
have been verified through live concert video footage. There's a
lot more that can be done, but this should be enough to get you
started playing. Enjoy!

* Damien fingerpicks the verses, but uses a pick for the main
  chorus part. He pulls it off by holding the pick with his index
  finger pressed against his palm during the verses, fingerpicking
  with his other fingers, then moves the pick to between his index
  finger and thumb to play the chorus chords. He does this on a 
  number of his songs.
* (Notes in parentheses are hardly played.)


VERSE
======================
    Em                  C7       Em                 C7   
e:-----------------------------------------------------------------|
B:-----------------------------------------------------------------|
G:----------------------------------------------------0---0---0----|
D:---------5-7--9--7-0-------(2)-------5-7--9--7-0-------2------0--|
A:-------7--------------3-----(0)----7--------------3--------------|
E:--0----------------------------0---------------------------------|


    Am                  D        Am                 D                  
e:-------------------0--0----5--------------------------5-----5----|
B:----------------------7-------0-------------------8------7--7----|
G:---------5-7--9--7-0--7-----7-0------5-7--9--7-0--7--------------|
D:--7----7-----------------------7---7-------------------------(0)-|
A:-----------------------------------------------------------------|
E:-----------------------------------------------------------------|


    Em                  C7       Em                 C7   
e:-----------------------------------------------------------------|
B:-----------------------------------------------------------------|
G:-------------------------0----------------------------------0----|
D:---------5-7--9--7-0-------2-2-------5-7--9--7--------2-------2--|
A:-------7--------------3-------0----7--------------3------------0-|
E:--0----------------------------0---------------------------------|


    Am                  D        Am                 D                  
e:-----------------------0-0--5p0-------------------------5--------|
B:-----------------------------------------------------7-----------|
G:-----5---5-7--9--7----7---7----------5-7--9--7-0--7--------------|
D:---7---------------------------(7)-7-----------------------------|
A:-------------------------------------------------------------0---|
E:-----------------------------------------------------------------|

And it goes on just like that. My best guess for the electric part
that comes in is basically:


VERSE - ELECTRIC
======================
    Em                            C7                                  
e:--12-------------12----------------------------------------15----|
B:-----12-12h13-12----12-12h13-12-13-------------13----------------|
G:-----------------------------------12-12h14-12----12-12h14-------|
D:-----------------------------------------------------------------|
A:-----------------------------------------------------------------|
E:-----------------------------------------------------------------|

    Em                            C7                                  
e:--15-------------12----------------------------------------------|
B:-----12-12h13-12----12-12h13-12-13-------------13----------------|
G:-----------------------------------12-12h14-12----12-12h14-12----|
D:-----------------------------------------------------------------|
A:-----------------------------------------------------------------|
E:-----------------------------------------------------------------|

    Am                                    D     Am         D 
e:--------------------------------------|
B:--12h13-12-12h13-12-12h13-12-12h13-12-|
G:--------------------------------------|
D:--------------------------------------|
A:--------------------------------------| X 4
E:--------------------------------------|


Then for the chorus section, the chords are (listen to recording
for strumming pattern):

MAIN CHORUS
======================
    Em      C       Am      B11/E
e:--0-------0-------0-------0--------------------------------------|
B:--0-------1-------1-------0--------------------------------------|
G:--0-------0-------2-------2--------------------------------------|
D:--9-------2-------2-------1--------------------------------------|
A:--7-------3-------0-------2--------------------------------------|
E:--0-------3--------------(0)-------------------------------------|

He continues to play these chords (with slight variation) through
the end of the song ("Darlin'... here's to you..."), until he
resumes singing part of the verse, at which point he switches back
to the verse riff.

-------------------------------------------------------------
12- SILENT NIGHT (Hidden Track)

TUNING: STANDARD
CAPO:   NONE

Tab by: Epimetheus

The song is actually sung a-cappella, so I played along with the track to find the
chords. Enjoy.


    CHORD CHART:
D      xx0232
A      x02220
A7     x02020
G      320003


D
Silent night, broken night.
A      A7          D
All is fallen when you take your flight.
G                         D
I found some hate for you just for show,
G                           D
You found some love for me, thinking I'd go.
      A            A7        D
Don't keep me from trying to sleep,
         A7       D
Sleep in heavenly peace.

D
Silent night, moonlit night.
A         A7       D
Nothing's changed, nothing is right.
G                          D
I should be stronger, then weeping alone,
G                         D
You should be weaker than sending me home.
  A              A7          D
I can't stop you fighting to sleep,
         A7       D
Sleep in heavenly peace.
comments
print report bad tab
3 comments total.
+1 reply
jackhood wrote on September 30 2008, 04:38 pm

this is near enough perfect
great job for compiling it
cheers 5*s

+1 reply
thExcomunicated wrote on April 16 2009, 09:35 pm

great effort.
fairly accurate for such a long tab.

0 reply
DawnDusk27 wrote on March 1 2014, 10:37 pm

For the violin part of Amie, I think it would be easier to go on (and this correlation to the 2nd fret capo) the fifth fret of the G, instead of sliding down the first fret of the B for the last part.

I want to post or [tab]
guest
You may want to rate the tab now too:
select rating
Please do not post tabs as comments. Select "correction" instead!