Oops, an error
Loading. Please wait.

Coming Of Age Tab

ver1
ver1

Whole song

Interactive

More versions @911Tabs.com
6,479 views 3 this week
no commentswrite comment
1 2 3 4 5
accurate
x 2
Autoscroll
+/-
esc
set tempo
stop
Contributor
Difficulty
intermediate
NEW! There's an official Ultimate Guitar app which is ideal
for learning songs when you're away from computer. Get the app
WARNING: You are trying to view
                                    content from Ultimate-Guitar.com
                                    in an unauthorized application,
                                    which is prohibited.

                                    Please use an official Ultimate
                                    Guitar Tabs application for iPhone,
                                    iPad or Android to access legitimate
                                    chords, guitar, bass, and drum tabs
                                    from Ultimate-Guitar.com database.

                                    Type "ultimate guitar tabs" in Apple
                                    App Store's or Android Market's
                                    search to find the application.
#----------------------------------PLEASE NOTE---------------------------------#
#This file is the author's own work and represents their interpretation of the #
#song. You may only use this file for private study, scholarship, or research. #
#------------------------------------------------------------------------------##

                                  COMING OF AGE
                           As recorded by Damn Yankees

Transcribed by Brian Murtagh

Gtr I (E A D G B E) - 'Rhythm 1'
Gtr II (E A D G B E) - 'Lead guitar'
Gtr III (E A D G B E) - 'Rhythm 2'

   Intro               Verse
    Gtr I
    E E E E E E E E  4x  E E E E E E E  E     E  E E E E E E  E
||-------------------||--------------------|---------------------|
||o-8---8-7---7-5---o||--8---8-7---7-5-----|--8----8-7---7-5-----|
||--7-7-7-7-7-7-7-7--||--7-7-7-7-7-7-7--7--|--7--7-7-7-7-7-7--7--|
||-------------------||----------------(0)-|-----------------(0)-|
||o-----------------o||--------------------|---------------------|
||-------------------||--------------------|---------------------|
|
|   Gtr III
|   W                4x  W                   +W
||-------------------||--------------------|---------------------|
||o-----------------o||-^3-----------------|-(3)-----------------|
||-------------------||-^2-----------------|-(2)-----------------|
||-------------------||-^0-----------------|-(0)-----------------|
||o-----------------o||-^0-----------------|-(0)-----------------|
||-------------------||--------------------|---------------------|


  Gtr I
  E E E E E E E  E     E  E E E E E E  E
|-------------------|---------------------|
|-8---8-7---7-5-----|--8----8-7---7-5-----|
|-7-7-7-7-7-7-7--7--|--7--7-7-7-7-7-7--7--|
|---------------(0)-|-----------------(0)-|
|-------------------|---------------------|
|-------------------|---------------------|
|
| Gtr II
| W                   +W
|-3-----------------|-(3)-----------------|
|-3-----------------|-(3)-----------------|
|-0-----------------|-(0)-----------------|
|-0-----------------|-(0)-----------------|
|-------------------|---------------------|
|-3-----------------|-(3)-----------------|


  E E E E E E E  E     E  E E E E E E  E
|-------------------|------------------------|
|-8---8-7---7-5-----|--8----8-7---7-5--------|
|-7-7-7-7-7-7-7--7--|--7--7-7-7-7-7-7--7-----|
|---------------(0)-|-----------------(0)----|
|-------------------|------------------------|
|-------------------|------------------------|
|
| W                   +H.           E  S  S
|-------------------|------------------------|
|-------------------|------------------3--3--|
|-5-----------------|-(5)-----------5--2--2--|
|-5-----------------|-(5)-----------5--0--0--|
|-3-----------------|-(3)-----------3--------|
|-------------------|------------------------|


  Gtr I
  E E E E E E E  E     E  E E E E E E  E
|-------------------|---------------------|
|-8---8-7---7-5-----|--8----8-7---7-5-----|
|-7-7-7-7-7-7-7--7--|--7--7-7-7-7-7-7--7--|
|---------------(0)-|-----------------(0)-|
|-------------------|---------------------|
|-------------------|---------------------|
|
| Gtr II
| W                   +W
|-------------------|---------------------|
|-3-----------------|-(3)-----------------|
|-2-----------------|-(2)-----------------|
|-0-----------------|-(0)-----------------|
|-0-----------------|-(0)-----------------|
|-------------------|---------------------|


   E  E E E E E E  E    E E E E E E E  E
|---------------------|-------------------|
|--8----8-7---7-5-----|-8---8-7---7-5-----|
|--7--7-7-7-7-7-7--7--|-7-7-7-7-7-7-7--7--|
|-----------------(0)-|---------------(0)-|
|---------------------|-------------------|
|---------------------|-------------------|
|
|         PM------------------------|
| +Q    E E E E E  E    E E E E E E E  E
|---------------------|----------------3--|
|-(3)-----------------|----------------3--|
|-(2)-------2-2-4--2--|-2-2-4-2-2-2-4--0--|
|-(0)-----0-0-0-0--0--|-0-0-0-0-0-0-0--0--|
|-(0)-----------------|-------------------|
|---------------------|-------------------|


  Gtr I
  E E E E  E  E E  E    E E E E  E  E E  E
|---------------------|---------------------|
|-8---8-7-----7-5-----|-8---8-7-----7-5-----|
|-7-7-7-7--7--7-7--7--|-7-7-7-7--7--7-7--7--|
|-----------------(0)-|-----------------(0)-|
|---------------------|---------------------|
|---------------------|---------------------|
|
| Gtr II
| H       +E  E E  E    H       +E  E E  E
|-3-------(3)-3----3--|-3-------(3)-3-------|
|-3-------(3)-3----3--|-3-------(3)-3-------|
|-0-------(0)-0----0--|-0-------(0)-0----5--|
|-0-------(0)-0----0--|-0-------(0)-0----5--|
|---------------------|------------------3--|
|-3-------(3)-3----3--|-3-------(3)-3-------|


  E E E E  E  E E  E    E E E E  E  E E  E
|---------------------|---------------------|
|-8---8-7-----7-5-----|-8---8-7-----7-5-----|
|-7-7-7-7--7--7-7--7--|-7-7-7-7--7--7-7--7--|
|-----------------(0)-|-----------------(0)-|
|---------------------|---------------------|
|---------------------|---------------------|
|
| H       +E  E E  E    H       +E  E E  E
|---------------------|---------------------|
|---------------------|------------------3--|
|-5-------(5)-5----5--|-5-------(5)-5----2--|
|-5-------(5)-5----5--|-5-------(5)-5----0--|
|-3-------(3)-3----3--|-3-------(3)-3-------|
|---------------------|---------------------|


  Gtr I
  E E E E E E E  E     E  E E E E E E  E
|-------------------|---------------------|
|-8---8-7---7-5-----|--8----8-7---7-5-----|
|-7-7-7-7-7-7-7--7--|--7--7-7-7-7-7-7--7--|
|---------------(0)-|-----------------(0)-|
|-------------------|---------------------|
|-------------------|---------------------|
|
| Gtr II
| W                   +W
|-------------------|---------------------|
|-3-----------------|-(3)-----------------|
|-2-----------------|-(2)-----------------|
|-0-----------------|-(0)-----------------|
|-------------------|---------------------|
|-------------------|---------------------|


    Gtr I
     E E E E +E  E E S S   E E E E +E   E  E E
||-----------------------|---------------------|
||o----------------------|---------------------|
||-----7---7-(7)-7-------|---7---7-(7)---------|
||-----7---7-(7)-7-------|---7---7-(7)---------|
||o-/9---------------7h8h|=9-----------10-10-9-|
||-----------------------|---------------------|
|
|   Gtr II
|        PM------------------------|
|    Q   E E  E  E E E     E E E E  E   E  E E
||-----------------------|--------------3--3---|
||o--3-------------------|--------------3--3-3-|
||---2---2-4--2--2-2-4---|-2-2-4-2--2---0--0-2-|
||---0---0-0--0--0-0-0---|-0-0-0-0--0---0--0-0-|
||o----------------------|---------------------|
||-----------------------|---------------------|


   E E E E +E  E E S S   E E E E +E   E  E E
|----------------------|----------------------|
|----------------------|----------------------|
|----7---7-(7)-7-------|---7---7-(7)----------|
|----7---7-(7)-7-------|---7---7-(7)----------|
|-/9---------------7h8h|=9-----------10-10-3--|
|----------------------|----------------------|
|
|  PM-----------------------------------|
|  E E E E  E  E E E     E E E E  E   E  E E
|----------------------|----------------------|
|----------------------|----------------------|
|--2-2-4-2--2--2-4-2---|-2-2-4-2--2---4--2-5--|
|--0-0-0-0--0--0-0-0---|-0-0-0-0--0---0--0-5--|
|----------------------|-------------------3--|
|----------------------|----------------------|


  Gtr I
  W                +E  E E E  E  E E E     W                 W
|----------------|----------------------||-----------------|----------------|
|----------------|-----6p5----6p=5-----o||-----------------|----------------|
|-5--------------|-(5)-----5-------5----||-----------------|----------------|
|-5--------------|-(5)------------------||-----------------|----------------|
|----------------|---------------------o||-----------------|----------------|
|----------------|----------------------||-----------------|----------------|
|
| Gtr II
|                                          <
|                                          PM----------------------|
| H    +E  E E E    H        +E  E E E     E E E E E E E E   E E E E E E Q
|----------------|----------------------||-----------------|----------------|
|----------------|-------------------3-o||-----------------|----------------|
|-5----(5)-5---5-|--5--------(5)-5---2--||-4-4-4-4-4-4-4-4-|-4-4-4-4-7---7--|
|-5----(5)-5---5-|--5--------(5)-5---0--||-4-4-4-4-4-4-4-4-|-4-4-4-4-7---7--|
|-3----(3)-3---3-|--3--------(3)-3-----o||-2-2-2-2-2-2-2-2-|-2-2-2-2-5---5--|
|----------------|----------------------||-----------------|----------------|


   Chorus
    Gtr I
    H.               +E  E   H     E E  E  E
||-------------------------|-----------------|
||o----------------------1-|-1-------1-----1-|
||-----------------------0-|-0-------0-----0-|
||--5----------------(5)-2-|-2-------2-----2-|
||o-5----------------(5)-3-|-3-------3-----3-|
||--3----------------(3)---|-----------------|
|
|   Gtr III
|   E     +E  E E H          W
||--6b6.5-(6)-3------------|-----------------|
||o-5b5.5-(5)-3------------|-----------------|
||-------------------------|-----------------|
||-------------------------|-----------------|
||o------------------------|-----------------|
||-------------------------|-----------------|
|
|   Gtr II
|   H.               +E  E   H.        +E  E
||--3----------------(3)---|-----------------|
||o-3----------------(3)---|-----------------|
||--0----------------(0)-5-|-5---------(5)---|
||--0----------------(0)-5-|-5---------(5)-3-|
||o----------------------3-|-3---------(3)-3-|
||--3----------------(3)---|---------------1-|


                 1.
  E  E  H.        E E E E +H
|---------------|---------------------||
|---------------|--------------------o||
|-2p=0--2-------|---------------------||
|-3-(3)-3-------|-3-5-3-5-(5)---------||
|-------3-------|-3-5-3-5-(5)--------o||
|-------1-------|---------------------||
|
| W               H        E  E E E
|---------------|-------------6-6-6---||
|---------------|-------------5-5-5--o||
|---------------|---------------------||
|---------------|---------------------||
|---------------|--------------------o||
|---------------|---------------------||
|
| W               H        E  E E E
|---------------|-3-----------3---3---||
|---------------|-3-----------3---3--o||
|---------------|-0-----------0---0---||
|-3-------------|-0-----------0---0---||
|-3-------------|--------------------o||
|-1-------------|-3-----------3---3---||


  2.
  E E E E +H       +W
|----------------|--------|
|----------------|--------|
|-3-5-3-5-(5)----|-(5)----|
|-3-5-3-5-(5)----|-(5)----|
|----------------|--------|
|----------------|--------|
|
| W                +W
|----------------|--------|
|----------------|--------|
|-5--------------|-(5)----|
|-5--------------|-(5)----|
|-3--------------|-(3)----|
|----------------|--------|


  E E E E E E E E    E  E E E E E E E
|-----------------|-------------------|
|-8---8-7---7-5---|--8----8-7---7-5---|
|-7-7-7-7-7-7-7-7-|--7--7-7-7-7-7-7-7-|
|-----------------|-------------------|
|-----------------|-------------------|
|-----------------|-------------------|
|
| W                 +W
|-----------------|-------------------|
|-----------------|-------------------|
|-----------------|-------------------|
|-0---------------|-(0)---------------|
|-----------------|-------------------|
|-----------------|-------------------|


  E  E    E E E    E  E E      E E E E  E  E  E   E
|----------------------------|----------------------|
|-8-------8-7------7--5------|-8---8-7-----7--5-----|
|-7--7----7-7-7----7--7-7----|-7-7-7-7--7--7--7---7-|
|----------------------------|----------------------|
|----------------------------|----------------------|
|----------------------------|----------------------|
|
|                                       ~~~
| E  Q.       Q       E E      E E E E  Q     Q
|----------------------------|----------------------|
|---10---------------10------|----------------------|
|----9b11-----9b11------9b11-|-9-7-7---[7]----------|
|----------------------------|-------9-------[9]\---|
|----------------------------|----------------------|
|----------------------------|----------------------|


 Verse
  E E E E E E E  E    E E E E E E E  E
|-------------------|-------------------|
|-8---8-7---7-5-----|-8---8-7---7-5-----|
|-7-7-7-7-7-7-7--7--|-7-7-7-7-7-7-7--7--|
|---------------(0)-|---------------(0)-|
|-------------------|-------------------|
|-------------------|-------------------|
|
| PM----------------------------|
| E E E E E E E  E    E E E E E E E  E
|-------------------|----------------3--|
|-------------------|----------------3--|
|-2-2-4-2-2-2-2--4--|-2-2-4-2-2-4----0--|
|-0-0-0-0-0-0-0--0--|-0-0-0-0-0-0----0--|
|-------------------|-------------------|
|-------------------|-------------------|


  E E E E  E  E E  E    E E E E  E  E E  E
|---------------------|---------------------|
|-8---8-7-----7-5-----|-8---8-7-----7-5-----|
|-7-7-7-7--7--7-7--7--|-7-7-7-7--7--7-7--7--|
|-----------------(0)-|-----------------(0)-|
|---------------------|---------------------|
|---------------------|---------------------|
|
| H       +E  E E  E    H       +E  E E  E
|-3-------(3)-3----3--|-3-------(3)-3-------|
|-3-------(3)-3----3--|-3-------(3)-3-------|
|-0-------(0)-0----0--|-0-------(0)-0----5--|
|-0-------(0)-0----0--|-0-------(0)-0----5--|
|---------------------|------------------3--|
|-3-------(3)-3----3--|-3-------(3)-3-------|


  E E E E  E  E E  E    E E E E  E  E E  E
|---------------------|---------------------|
|-8---8-7-----7-5-----|-8---8-7-----7-5-----|
|-7-7-7-7--7--7-7--7--|-7-7-7-7--7--7-7--7--|
|-----------------(0)-|-----------------(0)-|
|---------------------|---------------------|
|---------------------|---------------------|
|
| H       +E  E E  E    H       +E  E E  E
|---------------------|---------------------|
|---------------------|------------------3--|
|-5-------(5)-5----5--|-5-------(5)-5----2--|
|-5-------(5)-5----5--|-5-------(5)-5----0--|
|-3-------(3)-3----3--|-3-------(3)-3-------|
|---------------------|---------------------|


  E E E E E E E  E     E  E E E E E E  E
|-------------------|---------------------|
|-8---8-7---7-5-----|--8----8-7---7-5-----|
|-7-7-7-7-7-7-7--7--|--7--7-7-7-7-7-7--7--|
|---------------(0)-|-----------------(0)-|
|-------------------|---------------------|
|-------------------|---------------------|
|
| W                   +W
|-------------------|---------------------|
|-3-----------------|-(3)-----------------|
|-2-----------------|-(2)-----------------|
|-0-----------------|-(0)-----------------|
|-------------------|---------------------|
|-------------------|---------------------|


     E E E E +E  E E S S   E E E E +E   E  E E
||-----------------------|---------------------|
||o----------------------|---------------------|
||-----7---7-(7)-7-------|---7---7-(7)---------|
||-----7---7-(7)-7-------|---7---7-(7)---------|
||o-/9---------------7h8h|=9-----------10-10-9-|
||-----------------------|---------------------|
|
|        PM------------------------|
|    Q   E E  E  E E E     E E E E  E   E  E E
||-----------------------|--------------3--3---|
||o--3-------------------|--------------3--3-3-|
||---2---2-4--2--2-2-4---|-2-2-4-2--2---0--0-2-|
||---0---0-0--0--0-0-0---|-0-0-0-0--0---0--0-0-|
||o----------------------|---------------------|
||-----------------------|---------------------|


   E E E E +E  E E S S   E E E E +E   E  E E
|----------------------|----------------------|
|----------------------|----------------------|
|----7---7-(7)-7-------|---7---7-(7)----------|
|----7---7-(7)-7-------|---7---7-(7)----------|
|-/9---------------7h8h|=9-----------10-10-3--|
|----------------------|----------------------|
|
|  PM-----------------------------------|
|  E E E E  E  E E E     E E E E  E   E  E E
|----------------------|----------------------|
|----------------------|----------------------|
|--2-2-4-2--2--2-2-4---|-2-2-4-2--2---4--2-5--|
|--0-0-0-0--0--0-0-0---|-0-0-0-0--0---0--0-5--|
|----------------------|-------------------3--|
|----------------------|----------------------|


  W                +E  E E E  E  E E E     W                 W
|----------------|----------------------||-----------------|----------------|
|----------------|-----6p5----6p=5-----o||-----------------|----------------|
|-5--------------|-(5)-----5-------5----||-----------------|----------------|
|-5--------------|-(5)------------------||-----------------|----------------|
|----------------|---------------------o||-----------------|----------------|
|----------------|----------------------||-----------------|----------------|
|
|                                          <
|                                          PM----------------------|
| H    +E  E E E    H        +E  E E E     E E E E E E E E   E E E E E E Q
|----------------|----------------------||-----------------|----------------|
|----------------|-------------------3-o||-----------------|----------------|
|-5----(5)-5---5-|--5--------(5)-5---2--||-4-4-4-4-4-4-4-4-|-4-4-4-4-7---7--|
|-5----(5)-5---5-|--5--------(5)-5---0--||-4-4-4-4-4-4-4-4-|-4-4-4-4-7---7--|
|-3----(3)-3---3-|--3--------(3)-3-----o||-2-2-2-2-2-2-2-2-|-2-2-2-2-5---5--|
|----------------|----------------------||-----------------|----------------|


   Chorus
                                                     1.
    H.      +E  E   H     E E  E  E   E  E  H.        E E E E +H
||----------------|-----------------|---------------|---------------------||
||o-------------1-|-1-------1-----1-|---------------|--------------------o||
||--------------0-|-0-------0-----0-|-2p=0--2-------|---------------------||
||--5-------(5)-2-|-2-------2-----2-|-3-(3)-3-------|-3-5-3-5-(5)---------||
||o-5-------(5)-3-|-3-------3-----3-|-------3-------|-3-5-3-5-(5)--------o||
||--3-------(3)---|-----------------|-------1-------|---------------------||
|
|   H.      +E  E   H.        +E  E   W               H        E  E E E
||--3-------(3)---|-----------------|---------------|-3-----------3---3---||
||o-3-------(3)---|-----------------|---------------|-3-----------3---3--o||
||--0-------(0)-5-|-5---------(5)---|---------------|-0-----------0---0---||
||--0-------(0)-5-|-5---------(5)-3-|-3-------------|-0-----------0---0---||
||o-------------3-|-3---------(3)-3-|-3-------------|--------------------o||
||--3-------(3)---|---------------1-|-1-------------|-3-----------3---3---||


                  Bridge
  2.
  W                 H.       +E   E
|--------------||--------------------|
|--------------||o-------------------|
|--------------||---2--------(2)--2--|
|--------------||---3--------(3)--3--|
|--------------||o--3--------(3)--3--|
|--------------||---1--------(1)--1--|
|
|                   ~~~
| H.       Q        H.       +E   E
|--------------||--------------------|
|--------------||o-10-------(10)-10\-|
|--------------||--10-------(10)-10\-|
|--------------||--10-------(10)-10\-|
|---------10\--||o-------------------|
|---------10\--||--------------------|


               1.
  E E H.        W          E Q  E E E E E
|-------------|----------|-----------------||
|---1-1-------|----------|----------------o||
|---0-0-------|-8--------|-3----3-3---3-3--||
|---2-2-------|-8--------|-3----3-3---3-3--||
|---3-3-------|-6--------|-1----1-1---1-1-o||
|-------------|----------|-----------------||
|
|               ~
| E E H.        W          W
|-------------|----------|-----------------||
|-------------|-8--------|----------------o||
|---5-5-------|-8--------|-3---------------||
|---5-5-------|-8--------|-3---------------||
|---3-3-------|----------|-1--------------o||
|-------------|----------|-----------------||


  2.
    PM-------------------------------------------------------|
    E  E E  E  E E  E  E    E  E  E      E  E      E  E      E
|------------------------|-------------------------------------|
|------------------------|-------------------------------------|
|--------------7-7--7--7-|--7--7--7------7--7------7--7------7-|
|---7--7-7--7--7-7--7--7-|--7--7--7------5--7------7--7------7-|
|---5--5-5--5--5-5--5--5-|--5--5--5------5--5------5--5------5-|
|------------------------|-------------------------------------|
|
|                                 \0.25/    \0.25/    \0.25/
|   Q.      Q.      Q       Q     Q         Q         Q
|------------------------|-------------------------------------|
|----------<7>-----------|-------------------------------------|
|------------------------|-<7>---<7>-------<7>-------<7>-------|
|-<12>-------------<7>---|-------------------------------------|
|------------------------|-------------------------------------|
|------------------------|-------------------------------------|


 Guitar Solo
  H.          +E  E     H.            +E  E
|---------------------|---------------------|
|-----------------1---|-1-------------(1)---|
|-----------------0---|-0-------------(0)-2-|
|-5-----------(5)-2---|-2-------------(2)-3-|
|-5-----------(5)-3---|-3-------------(3)-3-|
|-3-----------(3)-----|-------------------1-|
|
| q   q    q   E  e     E  E E E q     q
|-3--------3---3------|----3---3-------3----|
|-3--------3---3------|----3---3-------3----|
|-----5b7---------5b7-|----------5b7--------|
|---------------------|---------------------|
|---------------------|---------------------|
|---------------------|---------------------|


   W                         E     E  E  E +H
|-------------------------|---------------------------|
|-------------------------|---------------------------|
|--2----------------------|---------------------------|
|--3----------------------|--3-----5--3--5-(5)--------|
|--3----------------------|--3-----5--3--5-(5)--------|
|--1----------------------|---------------------------|
|
|                 ~~~~
|  S     +S   E  +H.         S  S  E  E  E  E   +Q.
|-------------------------|---------------------------|
|-17b18-(17)-17-(17)------|-17p15----17-15------------|
|-17b18-(17)-17-(17)------|-17p15----17-15------------|
|-------------------------|-------17-------17--(17)---|
|-------------------------|---------------------------|
|-------------------------|---------------------------|


   H.                                   +E       E       H.                    +E  E
|-----------------------------------------------------|------------------------------|
|------------------------------------------------1----|--1---------------------(1)---|
|------------------------------------------------0----|--0---------------------(0)-2-|
|--5------------------------------------(5)------2----|--2---------------------(2)-3-|
|--5------------------------------------(5)------3----|--3---------------------(3)-3-|
|--3------------------------------------(3)-----------|----------------------------1-|
|
|                                                        ~~~~~           ~~~~~
|  E   E     S  S  E       E       S  S  E       S  S    Q      S  S  E  H
|-18--18----15-15-18b18.5-18b18.5-15-15-18b18.5-15-15-|-18b20--18p15-15--------------|
|-17--17b18-15-15-17b18---17b18---15-15-17b18---15-15-|-----------------18b20--------|
|-----------------------------------------------------|------------------------------|
|-----------------------------------------------------|------------------------------|
|-----------------------------------------------------|------------------------------|
|-----------------------------------------------------|------------------------------|


   W                                                 E     E  E  E +H
|-------------------------------------------------|----------------------------|
|-------------------------------------------------|----------------------------|
|--2----------------------------------------------|----------------------------|
|--3----------------------------------------------|--3-----5--3--5-(5)---------|
|--3----------------------------------------------|--3-----5--3--5-(5)---------|
|--1----------------------------------------------|----------------------------|
|
|  S  S  E     S  S  S     S  S  S  S  S  S  S  E    S  S  E  E  E  Q   E  E
|-15-15----------------------15-15----------------|----------------------------|
|-------18b20-18p15-------15-------18-15----------|-17p15----15-15-------------|
|-------------------17b19----------------17p15----|-17p15----15-15------0-<5>--|
|----------------------------------------------17-|-------17-------17\---------|
|-------------------------------------------------|----------------------------|
|-------------------------------------------------|----------------------------|


    H           a   E      E   E        E     H         E E       +E         E
|-------------------------------------------|----------------------------------|
|---------------------------------------3---|-3---------3-3-------(3)--------3-|
|---2-----------------------------------2---|-2---------2-2-------(2)--------2-|
|---2-----------------------------------4---|-4---------4-4-------(4)--------4-|
|---0-----------2s==4------0----------------|-0--------------------------------|
|-------------------------------------------|----------------------------------|
|
|                   \0.25/     \0.25/   |     \2____/0______\0.5/      \0.5/
|                                                       |------3-------|
|  +Q     +Q       +Q         +E       +E     Q    +Q   Q   Q          Q
|-------------------------------------------|----------------------------------|
|-------------------------------------------|----------------------------------|
|-(<5>)--(<5>)----(<5>)------(<5>)----(<5>)-|-2----(2)s=6s==9s========11s======|
|-------------------------------------------|----------------------------------|
|-------------------------------------------|----------------------------------|
|-------------------------------------------|----------------------------------|


   H                a E   E E     E     E     E     Q            E  Q.
|---------------------------------3---|-------2-----2------------2--2---------|
|---------------------------------3---|-------3-----3------------3--3---------|
|--2------------------------------0---|-------2-----2------------2--2---------|
|--2------------------------------0---|-------0-----0------------0--0---------|
|--0----------------2s4---0-----------|---------------------------------------|
|-------------------------------------|---------------------------------------|
|
|  \0.5/
|               ~~~~~~~~~~                                              ~~
|                           |-3-|       |----6----| |----6----|
|  E      +E   +Q     Q     S S S S S   S S S S S S S S S S S S  E  E   E   E
|-------------------------------------|-----------------------------------/17-|
|---------------------------5h8p5---5-|-8p5h7p5---5-------------10-10--10-/17-|
|-14b16==(14)r(14)----7b9---------7---|---------7---7-5h7p5---5---------------|
|-------------------------------------|---------------------7-----------------|
|-------------------------------------|---------------------------------------|
|-------------------------------------|---------------------------------------|


   H               a  E  E       E     E       H                         E     E +E  E
|-------------------------------------------|------------------------------------------|
|--------------------------------------3----|--3-------------------------3-----3-(3)-3-|
|--2-----------------------------------2----|--2-------------------------2-----2-(2)-2-|
|--2-----------------------------------4----|--4-------------------------4-----4-(4)-4-|
|--0---------------2s=4--0------------------|--0---------------------------------------|
|-------------------------------------------|------------------------------------------|
|
|                                                                                 ~~~
|  E  E  E       E    E  E       S  S  E       S     +S   S  S  E  E     S  S  E  Q
|-17-20-20b20.5-17---20-20b20.5-20p17-------|------------------------------------------|
|-17-19-19b19.5-17---19-19b19.5-19p17-19b20-|-19b20-(19)-------17-19b20-19p17----------|
|-------------------------------------19b20-|-19b20-(19)-20p18-17-19b20-19-17----------|
|-------------------------------------------|---------------------------------19-19----|
|-------------------------------------------|------------------------------------------|
|-------------------------------------------|------------------------------------------|


      
   H                                  a  E        E        E        E          
|---------------------------------------------------------------------------|
|---------------------------------------------------------------------------|
|--2----------------------------------------------------------------2-------|
|--2----------------------------------------------------------------2-------|
|--0----------------------------------2s=4--------0-----------------0-------|
|---------------------------------------------------------------------------|
|
|
PM------------------------|
E        E        E        E        q           Q
---------------------------------------------------------|
--------------------------------------3-----------3------|
--2--------2--------2--------2--------2-----------2------|
--2--------2--------2--------2--------0-----------0------|
--0--------0--------0--------0---------------------------|
---------------------------------------------------------| 
  
|  |------6-------|  |------6-------|    |------6-------|  |------6-------|    
|  S  S  S  S  S  S  S  S  S  S  S  S    S  S  S  S  S  S  S  S  S  S  S  S    
|-17------------------------------------17----------------------------------|
|----20p17----17h20p17----17h20p17---------20p17----17h20p17----17h20p17----|
|----------19----------19----------19------------19----------19----------19-|
|---------------------------------------------------------------------------|
|---------------------------------------------------------------------------|
|---------------------------------------------------------------------------|

|------6-------|  |------6-------|
-------------------------------------20b22r(20)-(20)b22--|
-17h20p17----17h20p17----17h20p17------------------------|
----------19----------19----------19---------------------|
---------------------------------------------------------|
---------------------------------------------------------|
---------------------------------------------------------|

   Chorus
    Gtr I
    H.               +E  E   H     E E  E  E
||-------------------------|-----------------|
||o----------------------1-|-1-------1-----1-|
||-----------------------0-|-0-------0-----0-|
||--5----------------(5)-2-|-2-------2-----2-|
||o-5----------------(5)-3-|-3-------3-----3-|
||--3----------------(3)---|-----------------|
|
|   Gtr III
|   E     +E  E E H          W
||--6b6.5-(6)-3------------|-----------------|
||o-5b5.5-(5)-3------------|-----------------|
||-------------------------|-----------------|
||-------------------------|-----------------|
||o------------------------|-----------------|
||-------------------------|-----------------|
|
|   Gtr II
|   H.               +E  E   H.        +E  E
||--3----------------(3)---|-----------------|
||o-3----------------(3)---|-----------------|
||--0----------------(0)-5-|-5---------(5)---|
||--0----------------(0)-5-|-5---------(5)-3-|
||o----------------------3-|-3---------(3)-3-|
||--3----------------(3)---|---------------1-|


                 1.,3.
  E  E  H.        E E E E +H          4x
|---------------|---------------------||
|---------------|--------------------o||
|-2p=0--2-------|---------------------||
|-3-(3)-3-------|-3-5-3-5-(5)---------||
|-------3-------|-3-5-3-5-(5)--------o||
|-------1-------|---------------------||
|
| W               H        E  E E E   4x
|---------------|-------------6-6-6---||
|---------------|-------------5-5-5--o||
|---------------|---------------------||
|---------------|---------------------||
|---------------|--------------------o||
|---------------|---------------------||
|
| W               H        E  E E E   4x
|---------------|-3-----------3---3---||
|---------------|-3-----------3---3--o||
|---------------|-0-----------0---0---||
|-3-------------|-0-----------0---0---||
|-3-------------|--------------------o||
|-1-------------|-3-----------3---3---||


 Out-Chorus
  2.,4.
  E E E E E E E E   H.          +E   E   H         E   E E E
|-----------------|--------------------|---------------------|
|-----------------|------------------1-|-1-------------1---1-|
|-----------------|------------------0-|-0-------------0---0-|
|-3-5-3-5-3-5-3-5-|-5-----------(5)--2-|-2-------------2---2-|
|-3-5-3-5-3-5-3-5-|-5-----------(5)--3-|-3-------------3---3-|
|-----------------|-3-----------(3)----|---------------------|
|
| W                 W                    W
|-----------------|--------------------|---------------------|
|-----------------|--------------------|---------------------|
|-----------------|--------------------|---------------------|
|-----------------|--------------------|---------------------|
|-----------------|--------------------|---------------------|
|-----------------|--------------------|---------------------|
|
| H       E E E E   q   q    q   E   e   E E   E E q     q
|-3---------3---3-|-3--------3-------3-|---------3-------3---|
|-3---------3---3-|-3--------3-------3-|---------3-------3---|
|-0---------0---0-|-----5b7------5b7---|---5b7-----5b7-------|
|-0---------0---0-|--------------------|---------------------|
|-----------------|--------------------|---------------------|
|-3---------3---3-|--------------------|---------------------|


  E    E  H.             E         E    E  E  +H
|----------------------|--------------------------------|
|----------------------|--------------------------------|
|-2p===0--2------------|--------------------------------|
|-3---(3)-3------------|-3---------5----3--5--(5)-------|
|---------3------------|-3---------5----3--5--(5)-------|
|---------1------------|--------------------------------|
|
| W                      W
|----------------------|--------------------------------|
|----------------------|--------------------------------|
|----------------------|--------------------------------|
|----------------------|--------------------------------|
|----------------------|--------------------------------|
|----------------------|--------------------------------|
|
|                                              ~~~
| q       q   q    E E   S    +S  +S  S E  E  +Q   Q
|---------3--------3---|--------------------------------|
|---------3--------3-3-|-5b6==(5)r(5)p3-----------------|
|-5b7---------5b7----3-|-5b6==(5)r(5)p3---[3]-(3)-------|
|----------------------|----------------5----------5\---|
|----------------------|--------------------------------|
|----------------------|--------------------------------|


    H.                      +E     E         H                      E     E     E     E
|----------------------------------------|-------------------------------------------------|
|----------------------------------1-----|---1----------------------------1-----------1----|
|----------------------------------0-----|---0----------------------------0-----------0----|
|---5-----------------------(5)----2-----|---2----------------------------2-----------2----|
|---5-----------------------(5)----3-----|---3----------------------------3-----------3----|
|---3-----------------------(3)----------|-------------------------------------------------|
|
|   E   E     +E   E  Q      E     E        +E    E     E     E     E     E     E     E
|----------------------------------------|-------------------------------------------------|
|-----------------18-18-----18----18-----|-(18)--18----18----18----18----18----18----18----|
|-/15--17b19-(17)----17b19--17b19-17b19==|=(17)r-17b19-17b19-17b19-17b19-17b19-17b19-17b19-|
|----------------------------------------|-------------------------------------------------|
|----------------------------------------|-------------------------------------------------|
|----------------------------------------|-------------------------------------------------|


   E     E     H.                              E  E  E     E  E     E  E     E
|-------------------------------------------|--------------------------------------|
|-------------------------------------------|--------------------------------------|
|--2p====0-----2----------------------------|--------------------------------------|
|--3----(3)----3----------------------------|--3--5--3-----5--3-----5--3-----5-----|
|--------------3----------------------------|--3--5--3-----5--3-----5--3-----5-----|
|--------------1----------------------------|--------------------------------------|
|
|  E     E     E     E     S  S  E  S  S  E    E  E  E     E  E     E  E     S  S
|-------------------------------------------|-------------15-------15-------15-15--|
|-18----18----18----18----------------------|----15-18b20----18b20----18b20--------|
|-17b19-17b19-17b19-17b19-17p15----17p15----|-17-----------------------------------|
|-------------------------------17-------17-|--------------------------------------|
|-------------------------------------------|--------------------------------------|
|-------------------------------------------|--------------------------------------|


   H.                                 +E     E       H                       E    E  E  E
|-------------------------------------------------|------------------------------------------|
|--------------------------------------------1----|--1----------------------------1-----1----|
|--------------------------------------------0----|--0----------------------------0-----0----|
|--5----------------------------------(5)----2----|--2----------------------------2-----2----|
|--5----------------------------------(5)----3----|--3----------------------------3-----3----|
|--3----------------------------------(3)---------|------------------------------------------|
|
|                                                                            ~~~~~
|  E     S  S  E     S  S  E     S  S  E     S  S    E     S  S  E     S  S  Q       E  E
|-18b20-15-15-------15-15-18b20-15-15-------15-15-|-18b20-15-15-------15-15------------------|
|-------------18b20-------------------18b20-------|-------------18b20---------------15-18b20-|
|-------------------------------------------------|-------------------------17b19------------|
|-------------------------------------------------|------------------------------------------|
|-------------------------------------------------|------------------------------------------|
|-------------------------------------------------|------------------------------------------|


   E  E     H.                              E  E     E  E    +H
|----------------------------------------|---------------------------------|
|----------------------------------------|---------------------------------|
|--2p=0-----2----------------------------|---------------------------------|
|--3-(3)----3----------------------------|--3--5-----3--5----(5)-----------|
|-----------3----------------------------|--3--5-----3--5----(5)-----------|
|-----------1----------------------------|---------------------------------|
|
|  E  E     E     S  S  E  E     S  S  E    E  E     E  E     E   E  E  E
|-15-------------------------------------|-------------------15-----18-20--|
|----17b18-17b18-17p15-15-17b18-17p15----|----------18-18b20-----18--------|
|----17b18-17b18-17p15-15-17b18-17p15----|----17b19------------------------|
|-------------------------------------17-|-17------------------------------|
|----------------------------------------|---------------------------------|
|----------------------------------------|---------------------------------|


   W
|----------*|
|----------*|
|----------*|
|----------*|
|----------*|
|----------*|
|
|  ~~~~~
|  W
|-20b22----*|
|----------*|
|----------*|
|----------*|
|----------*|
|----------*|


Duration Legend
---------------
W - whole; H - half; Q - quarter; E - 8th; S - 16th; T - 32nd; X - 64th; a - acciaccatura
+ - note tied to previous; . - note dotted; .. - note double dotted
Uncapitalized letters represent notes that are staccato (1/2 duration)
Irregular groupings are notated above the duration line
Duration letters will always appear directly above the note/fret number it represents the
duration for.  Duration letters with no fret number below them represent rests.  Multi-
bar rests are notated in the form Wxn, where n is the number of bars to rest for.  Low
melody durations appear below the staff

Tablature Legend
----------------
 h   - hammer-on
 p   - pull-off
 b   - bend
 pb  - pre-bend
 r   - bend release (if no number after the r, then release immediately)
 /\  - slide into or out of (from/to "nowhere")
 s   - legato slide
 S   - shift slide
<n>  - natural harmonic
[n]  - artificial harmonic
n(n) - tapped harmonic
 ~   - vibrato
 tr  - trill
 T   - tap
 TP  - trem. picking
 PM  - palm muting
\n/  - tremolo bar dip; n = amount to dip
 \n  - tremolo bar down
 n/  - tremolo bar up
/n\  - tremolo bar inverted dip
 =   - hold bend; also acts as connecting device for hammers/pulls
 <>  - volume swell (louder/softer)
 x   - on rhythm slash represents muted slash
 o   - on rhythm slash represents single note slash

Misc Legend
-----------
 |  - bar
||  - double bar
||o - repeat start
o|| - repeat end
*|  - double bar (ending)
 :  - bar (freetime)
 $  - Segno
 &  - Coda
Tempo markers - <E/E./Q/Q./H/H.> = BPM(8/16=s8/s16), where s8 = swing 8ths, s16 = swing 16ths


comments
We did not receive enough feedback on this tab! Please rate:
print report bad tab
1 2 3 4 5
I want to post or [tab]
guest
You may want to rate the tab now too:
select rating
Please do not post tabs as comments. Select "correction" instead!