Oops, an error
Loading. Please wait.

Watch This Tab

764 views 6 this week
2 commentsread comments
1 2 3 4 5
accurate
x 5
Autoscroll
+/-
esc
set tempo
stop
Contributor
Difficulty
intermediate
WARNING: You are trying to view
                                    content from Ultimate-Guitar.com
                                    in an unauthorized application,
                                    which is prohibited.

                                    Please use an official Ultimate
                                    Guitar Tabs application for iPhone,
                                    iPad or Android to access legitimate
                                    chords, guitar, bass, and drum tabs
                                    from Ultimate-Guitar.com database.

                                    Type "ultimate guitar tabs" in Apple
                                    App Store's or Android Market's
                                    search to find the application.
-------------------------------------------------------------------------------
			     Watch This! - Dananananaykroyd
-------------------------------------------------------------------------------
Tabbed by: jjjddd
Email: jxsxphdxxgxn@gmail.com

Tuning: EADGAe [standard with B string down 1 step] 

            DANANANANAYKROYD!     DANANANANAYKROYD!
e|---------------------------------------------------------------------------|
A|-0~-----------------------0~-----------------------------------------------|
G|-0~-----------------------0~----------------------------0---0---0---0------|
D|-0~-----------------------0~----------------------------0---0---0---0------|
A|-0~-----------------------0~----------------------------0---0---0---0------|
E|-0~-----------------------0~----------------------------0---0---0---0------|

		    watch this!           watch this!
		e|---------------------------------------|
		A|---------------------------------------|
		G|--11-------11------------14--------14--|
		D|---------------------------------------|
		A|---9--------9------------12--------12--|
		E|---------------------------------------|
        
	Verse

e|---------------------------------------------------------------------------|
A|---------------------------------------------------------------------------|
G|---------11\9--------------------------------------------------0~----------|
D|--7-------------11\9---9\7---7~-7\2--2/4-4-----0-4-0-2/4-4-------4~--------|
A|--0--0-0------0------0-----0---------------0h2-------------0h5------5~-----|
E|---------------------------------------------------------------------------|
       * *      *      *     *					                 x3

e|---------------------------------------------------------------------------|
A|-------------------12---12-------------------------------------------------|
G|----------------------9----9------6-6-6/7-------11--11---14--14------------|
D|-7--------7/9-9/11-----------11--------------------------------------------|
A|-0--0-0---0-0-0-0-----------------4-4-4/5-------9---9----12--12------------|
E|---------------------------------------------------------------------------|
      * *


	Chorus
e|-0----0-----0-0-0-0-----------0----0------------------------|
A|-0----0-----0-0-0-0-----------0----0------------------------|
G|-2----2-----2-2-2-2-----------6----6------13--13-----9--9---|
D|-2----2-----2-2-2-2/10b-------7----7------------------------|  x2
A|-0----0-----0-0-0-0-----------7----7------11--11-----7--7---|
E|-0----0-----0-0-0-0-----------5----5--0-0--------0-0--------|
                                        * *        * *


e|-0-----0------------------------0----0------------------------|
A|-0-----0------------------------0----0------------------------|
G|-2-----2-------4-2-0------------6----6------13--13-----9--9---|
D|-2-----2-------------4/2p0------7----7------------------------|
A|-0-----0------------------------7----7------11--11-----7--7---|
E|-0-----0---0-0------------------5----5--0-0--------0-0--------|
             * *                          * *        * *

e|-0----0---0-0-0-0-----5+-------|
A|-0----0---0-0-0-0-----5+-------|
G|-2----2---2-2-2-2-----5+-------|
D|-2----2---2-2-2-2-----5+-------|
A|-0----0---0-0-0-0-----5+-------|
E|-0----0---0-0-0-0-----5+-------|



e|-0----0------------------------|
A|-0----0------------------------|
G|-6----6------13--13-----9--9---| x3
D|-7----7------------------------|
A|-7----7------11--11-----7--7---|
E|-5----5--0-0--------0-0--------|
           * *        * *


e|-0----0---------------|
A|-0----0---------------|
G|-6----6------13--13---|
D|-7----7---------------|
A|-7----7------11--11---|
E|-5----5--0-0----------|
           * *
	
	Verse
e|---------------------------------------------------------------------------|
A|---------------------------------------------------------------------------|
G|---------11\9--------------------------------------------------0~----------|
D|--7-------------11\9---9\7---7~-7\2--2/4-4-----0-4-0-2/4-4-------4~--------|
A|--0--0-0------0------0-----0---------------0h2-------------0h5------5~-----|
E|---------------------------------------------------------------------------|
       * *      *      *     *

e|---------------------------------------------------------------------------|
A|-------------------12---12-------------------------------------------------|
G|----------------------9----9------6-6-6/7-------11--11---14--14------------|
D|-7--------7/9-9/11-----------11--------------------------------------------|
A|-0--0-0---0-0-0-0-----------------4-4-4/5-------9---9----12--12------------|
E|---------------------------------------------------------------------------|


e|-----------------------------------------|
A|-----------------------------------------|
G|--6--xxxxx-666-xxxxx-777-xxxxx-777-999---|
D|--7--xxxxx-777-xxxxx-----xxxxx-----------|
A|--7--xxxxx-777-xxxxx-555-xxxxx-555-777---|
E|--5--xxxxx-555-xxxxx-----xxxxx-----------|


e|-------------------------------------------------|
A|-------------------------------------------------|
G|--6-xxxxx-66-xxxx--777-9--0~---11--11---14--14---|
D|--7-xxxxx-77-xxxx---------0~---------------------|
A|--7-xxxxx-77-xxxx--555-7--0~----9---9---12--12---|
E|--5-xxxxx-55-xxxx---------0~---------------------|


	Chorus
e|-0----0-----0-0-0-0-----------0----0------------------------|
A|-0----0-----0-0-0-0-----------0----0------------------------|
G|-2----2-----2-2-2-2-----------6----6------13--13-----9--9---|
D|-2----2-----2-2-2-2/10b-------7----7------------------------|  x2
A|-0----0-----0-0-0-0-----------7----7------11--11-----7--7---|
E|-0----0-----0-0-0-0-----------5----5--0-0--------0-0--------|
                                        * *        * *

e|-0-----0------------------------0----0------------------------|
A|-0-----0------------------------0----0------------------------|
G|-2-----2-------4-2-0------------6----6------13--13-----9--9---|
D|-2-----2-------------4/2p0------7----7------------------------|
A|-0-----0------------------------7----7------11--11-----7--7---|
E|-0-----0---0-0------------------5----5--0-0--------0-0--------|
             * *                          * *        * *

e|-0----0---0-0-0-0-----5+-------|
A|-0----0---0-0-0-0-----5+-------|
G|-2----2---2-2-2-2-----5+-------|
D|-2----2---2-2-2-2-----5+-------|
A|-0----0---0-0-0-0-----5+-------|
E|-0----0---0-0-0-0-----5+-------|


e|-0----0------------------------|
A|-0----0------------------------|
G|-6----6------13--13-----9--9---| x4
D|-7----7------------------------|
A|-7----7------11--11-----7--7---|
E|-5----5--0-0--------0-0--------|
           * *        * *

e|----------------------------------------------------------|
A|------0~--------------------------------------------------|
G|------6~--------------------------------------------------|
D|-x-x--7~--------------------------------------------------|
A|-x-x--7~--------------------------------xpickslide/-------|
E|-x-x--5~--------------------------------xpickslide/-------|


 [played lightly]     [played loudly]
e|---------------------0-0-----0-0----|
A|---------------------0-0-----0-0----|
G|-2--2---2-2-2--------2-2-----2-2----|
D|-2--2---2-2-2--x7----2-2-----2-2----|
A|-0--0---0-0-0--------0-0-----0-0----|
E|------------------------------------|


e|----------------------------------------------|
A|----------------------------------------------|
G|-------------------------------------9---9----|
D|--------9------------7-----------7-7-7-7-7-7--| x2
A|-7h9h11---11--7h9h11---11-7h9h11-0---0---0----|
E|-0------------0-----------0-------------------|


e|------------------------------------------------------------|
A|----------------------------------------------------11------|
G|-------------9---------------9------------------------------|
D|--------9----7----------7----7---------7--------7/9----9----|
A|-7h9h11---11-0---7h9h11---11-0--7h9h11---11-7/9----------0--|
E|-0---------------0--------------0-----------0---------------|



e|------------------------------------------------------------|
A|------------------------------------------------------------|
G|-------------9---------------9----------------9-9-9-9-9-----|
D|--------9----7----------7----7---------7--------------------|
A|-7h9h11---11-0---7h9h11---11-0--7h9h11---11---7-7-7-7-7-----|
E|-0---------------0--------------0---------------------------|



e|---------------------------------------------------|
A|--------------------------------0-0-0-0-0-0-0-0----|
G|--9-9--9-11-11-11--14-14-14-14--6-6-6-6-6-6-6-6----|
D|--------------------------------7-7-7-7-7-7-7-7----| x4
A|--7-7--7--9--9--9--12-12-12-12--7-7-7-7-7-7-7-7----|
E|--------------------------------5-5-5-5-5-5-5-5----|

 	End Chorus
e|-0----0-----0-0-0-0---------------0----0------------------------|
A|-0----0-----0-0-0-0---------------0----0------------------------|
G|-2----2-----2-2-2-2-x-x-x-x-------6----6------13--13-----9--9---|
D|-2----2-----2-2-2-2-x-x-x-x-------7----7------------------------|  x2
A|-0----0-----0-0-0-0-x-x-x-x-------7----7------11--11-----7--7---|
E|-0----0-----0-0-0-0-x-x-x-x-------5----5--0-0--------0-0--------|
                                            * *        * *

e|-0-----0------------------------0----0------------------------|
A|-0-----0------------------------0----0------------------------|
G|-2-----2-------4-2-0------------6----6------13--13-----9--9---|
D|-2-----2-------------4/2p0------7----7------------------------|
A|-0-----0------------------------7----7------11--11-----7--7---|
E|-0-----0---0-0------------------5----5--0-0--------0-0--------|
             * *                          * *        * *

e|-0----0---0-0-0-0-----5+-------|
A|-0----0---0-0-0-0-----5+-------|
G|-2----2---2-2-2-2-----5+-------|
D|-2----2---2-2-2-2-----5+-------|
A|-0----0---0-0-0-0-----5+-------|
E|-0----0---0-0-0-0-----5+-------|


e|-0----0------------------------|
A|-0----0------------------------|
G|-6----6------13--13-----9--9---| x3
D|-7----7------------------------|
A|-7----7------11--11-----7--7---|
E|-5----5--0-0--------0-0--------|
           * *        * *


e|-0-----0--0----|
A|-0-----0--0----|
G|-6-----6--6----|
D|-7-----7--7----|
A|-7-----7--7----|
E|-5-----5--5----|


************************************
| *   palm mute
| /   slide up
| \   slide down
| h   hammer-on
| p   pull-off
| ~   vibrato
| +   harmonic
| x   Mute note
| b   Bend
| pb  Pre-bend
| br  Bend release
| pbr Pre-bend release
| brb Bend release bend

************************************
comments
print report bad tab
2 comments total. show 1 bad comment
0 reply
fatgleeson wrote on July 7 2014, 01:46 pm

Lack of accuracy.

I want to post or [tab]
guest
You may want to rate the tab now too:
select rating
Please do not post tabs as comments. Select "correction" instead!