Oops, an error
Loading. Please wait.

Elder Goose Tab

ver1
ver1

Intro

Whole song

Interactive

More versions @911Tabs.com
12,975 views 38 this week
6 commentsread comments
1 2 3 4 5
excellent!
x 5
Autoscroll
+/-
esc
set tempo
stop
Contributor
Difficulty
Tuning
intermediate
D A D G B E
WARNING: You are trying to view
                                    content from Ultimate-Guitar.com
                                    in an unauthorized application,
                                    which is prohibited.

                                    Please use an official Ultimate
                                    Guitar Tabs application for iPhone,
                                    iPad or Android to access legitimate
                                    chords, guitar, bass, and drum tabs
                                    from Ultimate-Guitar.com database.

                                    Type "ultimate guitar tabs" in Apple
                                    App Store's or Android Market's
                                    search to find the application.
Okay so I actually took the initiative to tab the rest of this song. It sounds 
right to me. Enjoy!

Intro (0:00 - 0:26) Guitar 1
e|----------------------------------------------------------------|
B|----------------------------------------------------------------|
G|----------------------------------------------------------------|
D|---3---3------------12----12------------------------------------|
A|---------3-3--------------------12/13---------------------------|
D|-1---1----1------10----10----10---------------------------------|


e|-----------------------------10---10----------------------------|
B|-10-10-10-10-11---10~------10--10---10--------------------------|
G|-12-12-12-12-12---12~------12--12---12--------------------------|
D|-12-12-12-12-12---12~------10--12---12--------------------------|
A|-10-10-10-10-10---10~------12--10---10--------------------------|
D|--------------------------------------10h12~--------------------|


Intro (0:06 - 0:26) Guitar 2
e|--------------------------------------------------------------------|
B|-15~-----15~-----15~-----15---15---18p15----------------------------|
G|-------17------17------17---17--------------------------------------| (2x)
D|--------------------------------------------------------------------|
A|--------------------------------------------------------------------|
D|--------------------------------------------------------------------|


e|----18-17~------------------18-17---18-17---------------------------|
B|----------------15~-------------------------------------------------|
G|-17-----------17---------17------17---------------------------------|
D|--------------------------------------------------------------------|
A|--------------------------------------------------------------------|
D|--------------------------------------------------------------------|


(0:27 - 0:53) Guitar 1
e|-------------------------------------------------------------------|
B|-------------------------------------------------------------------|
G|-15-15-14-15~--15-15-14-15------15-15-14-15~--15-15-14-15--17------| (3x)
D|---------------------------15--------------------------------------|
A|-------------------------------------------------------------------|
D|-------------------------------------------------------------------|

The 4th time he plays it he does this instead
e|-------------------------------------------------------------------|
B|-------------------------------------------------------------------|
G|-15-15-14-15~--15-15-14-15------15-15-14-15~-----------------------|
D|---------------------------15-----------------15-13-12-------------|
A|-------------------------------------------------------13----------|
D|-------------------------------------------------------------------|


(0:27 - 0:39) Guitar 2
e|-----------------------------------------------------17-------------|
B|-------15~-------15~--15---------15~--15--------15-15--18~----------|
G|-15h17-----15h17----17-17~-15h17----17-17-15h17--17-----------------|
D|--------------------------------------------------------------------|
A|--------------------------------------------------------------------|
D|--------------------------------------------------------------------|


(0:40 - 0:53) Guitar 2
e|-17--------------171717--------------------------------------------------|
B|---18-15----------------18-15---------------------------15---15----------|
G|---------17~-15--------------17-15-17-12(8x)-14(8x)-15-17---17---17-15---|
D|-------------------------------------------------------------------------|
A|-------------------------------------------------------------------------|
D|-------------------------------------------------------------------------|


e|-17--------------171717-----------------------------------------------------|
B|---18-15----------------18-15-----------------------------------------------|
G|---------17~-15--------------17-15-17-12(8x)-14(8x)-15~--weird pickslide----|
D|--------------------------------------------------------with an effect?-----|
A|----------------------------------------------------------------------------|
D|----------------------------------------------------------------------------|


(0:54 - 1:05) Guitar 1
e|-------------------------------------------------------------------|
B|-------------------------------------------------------------------|
G|-------------------------------------------------------------------|
D|----15-13-12----------15-13-12----12-------------------------------|
A|-------------13~---------------15---15~----------------------------|
D|-------------------------------------------------------------------|


e|--------------------------------------------------------------------|
B|--------------------------------------------------------------------|
G|--------------------------------------------------------------------|
D|--15-13-12-----15-13-12------15-13-12-----12---12---12~-------------|
A|-----------13~----------13~-----------15----15---15-----------------|
D|--------------------------------------------------------------------|


(1:06 - 1:28) Guitar 1   I'm not 100% sure about this part, it's really hard to hear it.
e|----------------------------------------------------------------------|
B|----------------------------------------------------------------------|
G|-------5s77777-5-5-5-555555533333333-------5s777775555553333332222----| (4x)
D|-1-1-1---------7-7-7-----------------3-3-3-x-xxxxxxxxxxxxxxxxx3333----|
A|-1-1-1-3s55555-8-8-8-333333311111111-5-5-5-3s555553333331111111111----|
D|-1-1-1---------8-8-8-----------------5-5-5----------------------------|


(0:54 - 1:28) Guitar 2     It's all tremolo picking    Distortion is added at 1:06(the 3rd time)
e|------------17(6x)----------------------------------------------------------|
B|-15(6x)------------18(14x)----15(6x)-18(6x)-13(6x)-15(14x)------------------|
G|------15(6x)----------------------------------------------------------------| (6x)
D|----------------------------------------------------------------------------|
A|----------------------------------------------------------------------------|
D|----------------------------------------------------------------------------|


(1:29 - 1:51) Guitar 1
e|-------------------------------------------------------------------|
B|-------------------------------------------------------------------|
G|-------------------------------------------------------------------|
D|------15------15--15s17----------15------15--15s17-----------------|
A|-10h13---10h13---------15~--10h13---10h13---------17~--------------|
D|-------------------------------------------------------------------|


e|-------------------------------------------------------------------|
B|--------------------------10h11p10---------------15----------------|
G|---------------------------------12p10h12p10-------14-15~----------| (4x)
D|------15------15--15s17---------------------12---------------------|
A|-10h13---10h13---------15------------------------------------------|
D|-------------------------------------------------------------------|


(1:29 - 1:51) Guitar 2
e|-----------------------------------------------10s13--10----------------|
B|-----------------------------1515151511111111---------------------------|
G|----------------7--10----10--1515151512121212---------------------------| (3x)
D|-10(7x)-8--10(7x)-8---8(7x)--8------------------------------------------|
A|--6----6---6----6--10----10---------------------------------------------|
D|------------------------------------------------------------------------|

The 4th time is like this                              |Tremolo Picking|
e|------------------------------------------------------------------------|
B|------------------------------10(8x)-11(8x)-----------------------------|
G|----------------7--10----10---------------------------------------------|
D|-10(7x)-8--10(7x)-8---8(7x)--8------------------------------------------|
A|--6----6---6----6--10----10---------------------------------------------|
D|------------------------------------------------------------------------|


(1:52 - 2:15) Guitar 1
e|-------------------------------------------------------------------|
B|-----------------5-5-5-5-5-5-5-5-----------------------------------|
G|-----------------5-5-5-5-5-5-5-5-----------------------------------|
D|-1-1-1-1-1-1-1-1-3-3-3-3-3-3-3-3-5-5-5-5-5-5-5-5-5-5-5-5-5-5-5-5---| (4x)
A|-1-1-1-1-1-1-1-1-----------------5-5-5-5-5-5-5-5-5-5-5-5-5-5-5-5---|
D|-1-1-1-1-1-1-1-1-----------------5-5-5-5-5-5-5-5-5-5-5-5-5-5-5-5---|


(1:52 - 2:15) Guitar 2
e|----------------------------------------------------10--10------------|
B|---------------------------------1010101011~-10~-10--10--10-----------|
G|---------------------------------1212121212~-12~-12--12--12-----------| (2x)
D|----3---3--------12----12--------1212121212~-12~-12--12--12-----------|
A|---------3-3~--------------12s13-1010101010~-10~-12--10--10---5s8~----|
D|-0h1-0h1--1---0h10--0h10-10-------------------------------------------|


e|----1---1-1---1-------10----10-10----10--------------------10--10--------|
B|----1---1-1---1-------10----10-10----10-1010101011~-10~-10--10--10-------|
G|----3---3-3---3-------12----12-12----12-1212121212~-12--12--12--12-------| (2x)
D|----3---3-3---3-------12----12-12----12-1212121212~-12--12--12--12-------|
A|----1---1-1---1-------10----10-10----10-1010101010~-10--10--10--10-5s8---|
D|1-1-1-1-1-1-1-1-10-10-10-10-10-10-10-10----------------------------------|


(2:16 - 2:22) Guitar 1                                                      Guitar 2
e|------------------------|           |-10~---13~-----10~---8~-10-10-10-8-8---|
B|------------------------|           |---------------------------------------|
G|-8~---12~-----10~---7~--|          |----------------------------------------|
D|------------------------|          |----------------------------------------|
A|------------------------|          |----------------------------------------|
D|------------------------|          |----------------------------------------|


(2:23 - 2:45) Guitar 1
e|----------------------------------------------------------------------|
B|----------------------------------------------------------------------|
G|-------5s77777-5-5-5-555555533333333-------5s777775555553333332222----| (4x)
D|-1-1-1---------7-7-7-----------------3-3-3-x-xxxxxxxxxxxxxxxxx3333----|
A|-1-1-1-3s55555-8-8-8-333333311111111-5-5-5-3s555553333331111111111----|
D|-1-1-1---------8-8-8-----------------5-5-5----------------------------|


(2:23 - 2:45) Guitar 2      Tremolo picking
e|------------17(6x)----------------------------------------------------------|
B|-15(6x)------------18(14x)----15(6x)-18(6x)-13(6x)-15(14x)------------------|
G|------15(6x)----------------------------------------------------------------| (4x)
D|----------------------------------------------------------------------------|
A|----------------------------------------------------------------------------|
D|----------------------------------------------------------------------------|


(2:46 - 2:48) Guitar 1
e|-------------------------------------------------------------------|
B|-------------------------------------------------------------------|
G|-------------------------------------------------------------------|
D|------15------15--15s17----------15------15--15s17-----------------|
A|-10h13---10h13---------15~--10h13---10h13---------17~--------------|
D|-------------------------------------------------------------------|


(2:46 - 2:48) Guitar 2
e|-----------------------------------------------------------------------|
B|-----------------------------------------------------------------------|
G|----------------7------------------------------------------------------|
D|-10(7x)-8--10(7x)-8----------------------------------------------------|
A|--6----6---6----6------------------------------------------------------|
D|-----------------------------------------------------------------------|


(2:49 - 3:12) Guitar 1      *Tremolo picking (I'm getting lazy sorry)
e|-------------15~------------------------------------------------------|
B|--18*-15*-18*-----13^-------------------------------------------------|
G|---------------------15-12~-------------------------------------------| (4x)
D|----------------------------------------------------------------------|
A|----------------------------------------------------------------------|
D|----------------------------------------------------------------------|


(2:49 - 3:12) Guitar 2    I'm not too sure about this part but this is the bass line.
e|-------------------------------------------------------------------|
B|-------------------------------------------------------------------|
G|-------------------------------------------------------------------|
D|-----5-------------------------------------------------------------|
A|---------6---5---6-------------------------------------------------|
D|-------------------------------------------------------------------|



Okay so I'm sort of grounded so I actually took the initiative to tab the rest of this 
song. It sounds right to me. Enjoy!

Intro (0:00 - 0:26) Guitar 1
e|----------------------------------------------------------------|
B|----------------------------------------------------------------|
G|----------------------------------------------------------------|
D|---3---3------------12----12------------------------------------|
A|---------3-3--------------------12/13---------------------------|
D|-1---1----1------10----10----10---------------------------------|


e|-----------------------------10---10----------------------------|
B|-10-10-10-10-11---10~------10--10---10--------------------------|
G|-12-12-12-12-12---12~------12--12---12--------------------------|
D|-12-12-12-12-12---12~------10--12---12--------------------------|
A|-10-10-10-10-10---10~------12--10---10--------------------------|
D|--------------------------------------10h12~--------------------|


Intro (0:06 - 0:26) Guitar 2
e|--------------------------------------------------------------------|
B|-15~-----15~-----15~-----15---15---18p15----------------------------|
G|-------17------17------17---17--------------------------------------| (2x)
D|--------------------------------------------------------------------|
A|--------------------------------------------------------------------|
D|--------------------------------------------------------------------|


e|----18-17~------------------18-17---18-17---------------------------|
B|----------------15~-------------------------------------------------|
G|-17-----------17---------17------17---------------------------------|
D|--------------------------------------------------------------------|
A|--------------------------------------------------------------------|
D|--------------------------------------------------------------------|


(0:27 - 0:53) Guitar 1
e|-------------------------------------------------------------------|
B|-------------------------------------------------------------------|
G|-15-15-14-15~--15-15-14-15------15-15-14-15~--15-15-14-15--17------| (3x)
D|---------------------------15--------------------------------------|
A|-------------------------------------------------------------------|
D|-------------------------------------------------------------------|

The 4th time he plays it he does this instead
e|-------------------------------------------------------------------|
B|-------------------------------------------------------------------|
G|-15-15-14-15~--15-15-14-15------15-15-14-15~-----------------------|
D|---------------------------15-----------------15-13-12-------------|
A|-------------------------------------------------------13----------|
D|-------------------------------------------------------------------|


(0:27 - 0:39) Guitar 2
e|-----------------------------------------------------17-------------|
B|-------15~-------15~--15---------15~--15--------15-15--18~----------|
G|-15h17-----15h17----17-17~-15h17----17-17-15h17--17-----------------|
D|--------------------------------------------------------------------|
A|--------------------------------------------------------------------|
D|--------------------------------------------------------------------|


(0:40 - 0:53) Guitar 2
e|-17--------------171717--------------------------------------------------|
B|---18-15----------------18-15---------------------------15---15----------|
G|---------17~-15--------------17-15-17-12(8x)-14(8x)-15-17---17---17-15---|
D|-------------------------------------------------------------------------|
A|-------------------------------------------------------------------------|
D|-------------------------------------------------------------------------|


e|-17--------------171717-----------------------------------------------------|
B|---18-15----------------18-15-----------------------------------------------|
G|---------17~-15--------------17-15-17-12(8x)-14(8x)-15~--weird pickslide----|
D|--------------------------------------------------------with an effect?-----|
A|----------------------------------------------------------------------------|
D|----------------------------------------------------------------------------|


(0:54 - 1:05) Guitar 1
e|-------------------------------------------------------------------|
B|-------------------------------------------------------------------|
G|-------------------------------------------------------------------|
D|----15-13-12----------15-13-12----12-------------------------------|
A|-------------13~---------------15---15~----------------------------|
D|-------------------------------------------------------------------|


e|--------------------------------------------------------------------|
B|--------------------------------------------------------------------|
G|--------------------------------------------------------------------|
D|--15-13-12-----15-13-12------15-13-12-----12---12---12~-------------|
A|-----------13~----------13~-----------15----15---15-----------------|
D|--------------------------------------------------------------------|


(1:06 - 1:28) Guitar 1   I'm not 100% sure about this part, it's really hard to hear it.
e|----------------------------------------------------------------------|
B|----------------------------------------------------------------------|
G|-------5s77777-5-5-5-555555533333333-------5s777775555553333332222----| (4x)
D|-1-1-1---------7-7-7-----------------3-3-3-x-xxxxxxxxxxxxxxxxx3333----|
A|-1-1-1-3s55555-8-8-8-333333311111111-5-5-5-3s555553333331111111111----|
D|-1-1-1---------8-8-8-----------------5-5-5----------------------------|


(0:54 - 1:28) Guitar 2     It's all tremolo picking     Distortion is added at 1:06 (the 3rd time)
e|------------17(6x)----------------------------------------------------------|
B|-15(6x)------------18(14x)----15(6x)-18(6x)-13(6x)-15(14x)------------------|
G|------15(6x)----------------------------------------------------------------| (6x)
D|----------------------------------------------------------------------------|
A|----------------------------------------------------------------------------|
D|----------------------------------------------------------------------------|


(1:29 - 1:51) Guitar 1
e|-------------------------------------------------------------------|
B|-------------------------------------------------------------------|
G|-------------------------------------------------------------------|
D|------15------15--15s17----------15------15--15s17-----------------|
A|-10h13---10h13---------15~--10h13---10h13---------17~--------------|
D|-------------------------------------------------------------------|


e|-------------------------------------------------------------------|
B|--------------------------10h11p10---------------15----------------|
G|---------------------------------12p10h12p10-------14-15~----------| (4x)
D|------15------15--15s17---------------------12---------------------|
A|-10h13---10h13---------15------------------------------------------|
D|-------------------------------------------------------------------|


(1:29 - 1:51) Guitar 2
e|-----------------------------------------------10s13--10----------------|
B|-----------------------------1515151511111111---------------------------|
G|----------------7--10----10--1515151512121212---------------------------| (3x)
D|-10(7x)-8--10(7x)-8---8(7x)--8------------------------------------------|
A|--6----6---6----6--10----10---------------------------------------------|
D|------------------------------------------------------------------------|

The 4th time is like this                              |Tremolo Picking|
e|------------------------------------------------------------------------|
B|------------------------------10(8x)-11(8x)-----------------------------|
G|----------------7--10----10---------------------------------------------|
D|-10(7x)-8--10(7x)-8---8(7x)--8------------------------------------------|
A|--6----6---6----6--10----10---------------------------------------------|
D|------------------------------------------------------------------------|


(1:52 - 2:15) Guitar 1
e|-------------------------------------------------------------------|
B|-----------------5-5-5-5-5-5-5-5-----------------------------------|
G|-----------------5-5-5-5-5-5-5-5-----------------------------------|
D|-1-1-1-1-1-1-1-1-3-3-3-3-3-3-3-3-5-5-5-5-5-5-5-5-5-5-5-5-5-5-5-5---| (4x)
A|-1-1-1-1-1-1-1-1-----------------5-5-5-5-5-5-5-5-5-5-5-5-5-5-5-5---|
D|-1-1-1-1-1-1-1-1-----------------5-5-5-5-5-5-5-5-5-5-5-5-5-5-5-5---|


(1:52 - 2:15) Guitar 2
e|----------------------------------------------------10--10------------|
B|---------------------------------1010101011~-10~-10--10--10-----------|
G|---------------------------------1212121212~-12~-12--12--12-----------| (2x)
D|----3---3--------12----12--------1212121212~-12~-12--12--12-----------|
A|---------3-3~--------------12s13-1010101010~-10~-12--10--10---5s8~----|
D|-0h1-0h1--1---0h10--0h10-10-------------------------------------------|


e|----1---1-1---1-------10----10-10----10--------------------10--10--------|
B|----1---1-1---1-------10----10-10----10-1010101011~-10~-10--10--10-------|
G|----3---3-3---3-------12----12-12----12-1212121212~-12--12--12--12-------| (2x)
D|----3---3-3---3-------12----12-12----12-1212121212~-12--12--12--12-------|
A|----1---1-1---1-------10----10-10----10-1010101010~-10--10--10--10-5s8---|
D|1-1-1-1-1-1-1-1-10-10-10-10-10-10-10-10----------------------------------|


(2:16 - 2:22) Guitar 1                                                      Guitar 2
e|------------------------|           |-10~---13~-----10~---8~-10-10-10-8-8---|
B|------------------------|           |---------------------------------------|
G|-8~---12~-----10~---7~--|          |----------------------------------------|
D|------------------------|          |----------------------------------------|
A|------------------------|          |----------------------------------------|
D|------------------------|          |----------------------------------------|


(2:23 - 2:45) Guitar 1
e|----------------------------------------------------------------------|
B|----------------------------------------------------------------------|
G|-------5s77777-5-5-5-555555533333333-------5s777775555553333332222----| (4x)
D|-1-1-1---------7-7-7-----------------3-3-3-x-xxxxxxxxxxxxxxxxx3333----|
A|-1-1-1-3s55555-8-8-8-333333311111111-5-5-5-3s555553333331111111111----|
D|-1-1-1---------8-8-8-----------------5-5-5----------------------------|


(2:23 - 2:45) Guitar 2      Tremolo picking
e|------------17(6x)----------------------------------------------------------|
B|-15(6x)------------18(14x)----15(6x)-18(6x)-13(6x)-15(14x)------------------|
G|------15(6x)----------------------------------------------------------------| (4x)
D|----------------------------------------------------------------------------|
A|----------------------------------------------------------------------------|
D|----------------------------------------------------------------------------|


(2:46 - 2:48) Guitar 1
e|-------------------------------------------------------------------|
B|-------------------------------------------------------------------|
G|-------------------------------------------------------------------|
D|------15------15--15s17----------15------15--15s17-----------------|
A|-10h13---10h13---------15~--10h13---10h13---------17~--------------|
D|-------------------------------------------------------------------|


(2:46 - 2:48) Guitar 2
e|-----------------------------------------------------------------------|
B|-----------------------------------------------------------------------|
G|----------------7------------------------------------------------------|
D|-10(7x)-8--10(7x)-8----------------------------------------------------|
A|--6----6---6----6------------------------------------------------------|
D|-----------------------------------------------------------------------|


(2:49 - 3:12) Guitar 1      *Tremolo picking (I'm getting lazy sorry)
e|-------------15~------------------------------------------------------|
B|--18*-15*-18*-----13^-------------------------------------------------|
G|---------------------15-12~-------------------------------------------| (4x)
D|----------------------------------------------------------------------|
A|----------------------------------------------------------------------|
D|----------------------------------------------------------------------|


(2:49 - 3:12) Guitar 2  Idk what the chords are here but this is the bass line. Comment 
if you know this part pleaseee.
e|-------------------------------------------------------------------|
B|-------------------------------------------------------------------|
G|-------------------------------------------------------------------|
D|---5---------------------------------------------------------------|
A|-------6---5---6---------------------------------------------------|
D|-------------------------------------------------------------------|


(3:13 - 3:37) Guitar 1
e|----------22-20-18---------15/-slide up with some weird effect?-------------|
B|-20-202020--------20~-(4x)--------------------------------------------------|
G|----------------------------------------------------------------------------|
D|----------------------------------------------------------------------------|
A|----------------------------------------------------------------------------|
D|----------------------------------------------------------------------------|


(3:13 - 3:37) Guitar 1
e|----------22-20-18---------15/-slide up with some weird effect?-------------|
B|-20-202020--------20~-(4x)--------------------------------------------------|
G|----------------------------------------------------------------------------|
D|----------------------------------------------------------------------------|
A|----------------------------------------------------------------------------|
D|----------------------------------------------------------------------------|


e|----------22-20-18---------15/-crazier slide thingy-----------------------|
B|-20-202020--------20~-(6x)------------------------------------------------|
G|--------------------------------------------------------------------------|
D|--------------------------------------------------------------------------|
A|--------------------------------------------------------------------------|
D|--------------------------------------------------------------------------|


(3:13 - 3:37) Guitar 2
e|-------------------------------------------------------------------|
B|-------------------------------------------------------------------|
G|-10-12----10------------------12-10-12-10~-------------------------|
D|--------12--8-10-8-10^10-8--8--------------8-10-8-10^10-8--8-------|
A|--------------------------10-------------------------------10------|
D|-------------------------------------------------------------------|


e|-------------------------------------------------------------------|
B|-------------------------------------------------------------------|
G|---------7-10-7----------7-10-7----------7-10-7----10-7-10-7-10-7--|
D|-----8-10------------8-10------------8-10--------------------------|
A|-8-10------------8-10------------8-10----------8-10----------------|
D|-------------------------------------------------------------------|


Well that's all that I got. If you have any corrections/suggestions then feel free to comment.
comments
print report bad tab
6 comments total. Showing first comments.
+1 reply
edmiston15 wrote on April 17 2011, 06:07 pm

Absoooolutely terrible tab. I hate you. whoever you are, wherever you may live, just know that your tabs are horrible and you should never do one again. ever.

0 reply
Snowdawgg wrote on April 18 2011, 06:08 pm

The tab is not horrible, it just misses some details, like how guitar 1 changes in the beginning. And you got me way confused on the chorus. Like how the **** am I supposed to play slow, then fast, slow, then fast, with more slow fast picking and repeat that 4 times?! It's still a pain in the ass to play, can't figure it out.

0 reply
kaizoku- wrote on April 18 2011, 07:17 pm

I'm glad theres finally a tab of this song, its my favorite song. THIS TAB IS AWESOME! all i really wanted to learn was the tremolo picking part. OTHER THAN THAT THIS TAB AND YOU ROcK FOR MAKING IT !

I want to post or [tab]
guest
You may want to rate the tab now too:
select rating
Please do not post tabs as comments. Select "correction" instead!