Oops, an error
Loading. Please wait.

Little Girl Tab

13,624 views 33 this week
1 commentread comment
1 2 3 4 5
excellent!
x 5
Autoscroll
+/-
esc
set tempo
stop
Contributor
Hey! There's an official Ultimate Guitar app which is ideal
for learning songs when you're away from computer. Get the app
WARNING: You are trying to view
                                    content from Ultimate-Guitar.com
                                    in an unauthorized application,
                                    which is prohibited.

                                    Please use an official Ultimate
                                    Guitar Tabs application for iPhone,
                                    iPad or Android to access legitimate
                                    chords, guitar, bass, and drum tabs
                                    from Ultimate-Guitar.com database.

                                    Type "ultimate guitar tabs" in Apple
                                    App Store's or Android Market's
                                    search to find the application.
Official Website: dnots.com

Artists: Danger Mouse & Sparklehorse
Album: Dark Night Of The Soul
Song: Little Girl (featuring Julian Casablancas)
Tabbed by witmachine@yahoo.com

This tab includes the intro, verse, chorus and solo.  The end of the song is 
just the same guitar as the intro and then the chorus, followed by the end
chords from the solo.

The intro has a clean guitar lick (Gt1), a basic arpeggio.  The verse brings
in the bass (Bass 1) and the rhythm guitar continues the arpeggio (Gt2).
A distorted second guitar (Gt3) comes in halfway through the first verse,
and the chord continues on through the chorus.


INTRO (Gt1)
Gt1  1   +   2   +   3   +   4   +   5   +   6   +   7   +   8   +   
     Fm
e |-------------------------------------------------------------------|
B |----------6-----------6-----------6-----------6-----------6--------|
G |------5-----------5-----------5-----------5-----------5-------5----|
D |--6-----------6-----------6-----------6-----------6----------------|
A |-------------------------------------------------------------------|
E |-------------------------------------------------------------------|

e |-------------------------------------------------------------------|
B |----6-----6----6------6-----------6-----------6-----------6---6----|
G |---5----5----5---5------------5-----------5-----------5------------|
D |--6---6----6----6---------6-----------6-----------6---------6------|
A |-------------------------------------------------------------------|
E |-------------------------------------------------------------------|
     Bbm
e |----------6-----------6-----------6-----------6-----------6--------|
B |------6-----------6-----------6-----------6-------6----------------|
G |--6-----------6-----------6-----------6---------------6-------6----|
D |-------------------------------------------------------------------|
A |-------------------------------------------------------------------|
E |-------------------------------------------------------------------|

e |----------6-------6-----6-----6---6-----------6-----------6---6----|
B |--------------6-----6-----6-----------6-----------6----------------|
G |----------------------6-----6-------------6-----------6-----6------|
D |-------------------------------------------------------------------|
A |-------------------------------------------------------------------|
E |-------------------------------------------------------------------|



FIRST VERSE (Bass 1 + Gt2)
Gt2. 1   +   2   +   3   +   4   +   5   +   6   +   7   +   8   +    |
     Fm
e |-------------------------------------------------------------------|
B |----------6-----------6-----------6-----------6-----------6--------|
G |------5-----------5-----------5-----------5-----------5-------5----|
D |--6-----------6-----------6-----------6-----------6----------------|
A |-------------------------------------------------------------------|
E |-------------------------------------------------------------------|
Bass 1                                                                |
G |--------------------------------------------------5----------------|
D |--3---------------3-------3-------3--------------------------------|
A |----------------------3-------3------------------------------------|
E |-------------------------------------------------------------------|
 1. trick that people use to make you think they are smart    is
 2.  It's nice to be  loved it   can never  happen   too   late

Gt2
e |-------------------------------------------------------------------|
B |----------6-----------6-----------6-----------6-----------6--------|
G |------5-----------5-----------5-----------5-----------5-------5----|
D |--6-----------6-----------6-----------6-----------6----------------|
A |-------------------------------------------------------------------|
E |-------------------------------------------------------------------|
Bass 1                                                                |
G |--------------------------------------------------5-------5--------|
D |-(3)----------3-3-----------------3--------------------------------|
A |------------------3-------------------3----------------------------|
E |-------------------------------------------------------------------|
 1. confidence when actually they're lost  in  the  dark     only
 2. I want to share my food but you have stolen my plate

Gt2
     Bbm
e |----------6-----------6-----------6-----------6-----------6--------|
B |------6-----------6-----------6-----------6-------6----------------|
G |--6-----------6-----------6-----------6---------------6-------6----|
D |-------------------------------------------------------------------|
A |-------------------------------------------------------------------|
E |-------------------------------------------------------------------|
Bass 1                                                                |
G |-------------------------------------------------------------------|
D |--8----------\3-----------------------------------3-------3--------|
A |------------------------------------------------------1-------1----|
E |-------------------------------------------------------------------|
 1.  someone  with the mind of a child  says  they'll grow up
 2.  Heyyyy     now                        Hey now go your  way

Gt2
e |----------6-------6-----6-----6---6-----------6-----------6---6----|
B |--------------6-----6-----6-----------6-----------6----------------|
G |----------------------6-----6-------------6-----------6-----6------|
D |-------------------------------------------------------------------|
A |-------------------------------------------------------------------|
E |-------------------------------------------------------------------|
Bass 1                                                                |
G |-------------------------------------------------------------------|
D |------------------3-------3----------------------------------------|
A |----------------------1-------1------------------------------------|
E |-------------------------------------------------------------------|
 1. cuz surfin' down the avalanche you're life will show up
 2. now...



CHORUS (0:40)
Gt2.
     Fm
e |-------------------------------------------------------------------|
B |----------6-----------6-----------6-----------6-----------6--------|
G |------5-----------5-----------5-----------5-----------5-------5----|
D |--6-----------6-----------6-----------6-----------6----------------|
A |-------------------------------------------------------------------|
E |-------------------------------------------------------------------|
                                                                      |
Bass 1                                                                |
G |--------------------------------------------------5----------------|
D |--3---------------3-------3-------3--------------------------------|
A |----------------------3-------3------------------------------------|
E |-------------------------------------------------------------------|
 1.                  You            tortured little girl

Gt2.
e |-------------------------------------------------------------------|
B |----------6-----------6-----------6-----------6-----------6--------|
G |------5-----------5-----------5-----------5-----------5-------5----|
D |--6-----------6-----------6-----------6-----------6----------------|
A |-------------------------------------------------------------------|
E |-------------------------------------------------------------------|
 1.                  Showin them what love   is      all     about

Gt2.
     C#
e |----------9-----------9-----------9---------------9-----------9----|
B |------9-------9-----------9-----------9---------------9------------|
G |--10--------------10----------10----------10--10----------10-------|
D |-------------------------------------------------------------------|
A |-------------------------------------------------------------------|
E |-------------------------------------------------------------------|
 1.                                  Where did all the

Gt2.
     C#              Cm
e |----------9---------------8-------8-----------8---------8--8---8---|
B |------9-------9-------9--------------------------------------------|
G |--10--10----------8-----------8-----------8-----------8---8---8----|
D |-------------------------------------------------------------------|
A |-------------------------------------------------------------------|
E |-------------------------------------------------------------------|
 1.  Time            go?             Every          where  is

     Fm
e |-------------------------------------------------------------------|
B |----------6-----------6-----------6-----------6-----------6--------|
G |------5-----------5-----------5-----------5-----------5-------5----|
D |--6-----------6-----------6-----------6-----------6----------------|
A |-------------------------------------------------------------------|
E |-------------------------------------------------------------------|
 1.  gone        gone        gone...

e |-------------------------------------------------------------------|
B |----6-----6----6------6-----------6-----------6-----------6---6----|
G |---5----5----5---5------------5-----------5-----------5------------|
D |--6---6----6----6---------6-----------6-----------6---------6------|
A |-------------------------------------------------------------------|
E |-------------------------------------------------------------------|
 1.                                                   you get the ...



SECOND VERSE (Bass 1 + Gt2)
Gt2. 1   +   2   +   3   +   4   +   5   +   6   +   7   +   8   +    |
     Fm
e |-------------------------------------------------------------------|
B |----------6-----------6-----------6-----------6-----------6--------|
G |------5-----------5-----------5-----------5-----------5-------5----|
D |--6-----------6-----------6-----------6-----------6----------------|
A |-------------------------------------------------------------------|
E |-------------------------------------------------------------------|
Bass 1                                                                |
G |--------------------------------------------------5----------------|
D |--3---------------3-------3-------3--------------------------------|
A |----------------------3-------3------------------------------------|
E |-------------------------------------------------------------------|
 1. point now  you picked  yourself up off the bus
 2.  More than         the average person on the street you are

Gt2
e |-------------------------------------------------------------------|
B |----------6-----------6-----------6-----------6-----------6--------|
G |------5-----------5-----------5-----------5-----------5-------5----|
D |--6-----------6-----------6-----------6-----------6----------------|
A |-------------------------------------------------------------------|
E |-------------------------------------------------------------------|
Bass 1                                                                |
G |--------------------------------------------------5-------5--------|
D |-(3)----------3-3-----------------3--------------------------------|
A |------------------3-------------------3----------------------------|
E |-------------------------------------------------------------------|
 1. She's on his arm now cuz they remind you of the pictures on the
 2. incorrect because I'm ignorant and sure not here to 

Gt2
     Bbm
e |----------6-----------6-----------6-----------6-----------6--------|
B |------6-----------6-----------6-----------6-------6----------------|
G |--6-----------6-----------6-----------6---------------6-------6----|
D |-------------------------------------------------------------------|
A |-------------------------------------------------------------------|
E |-------------------------------------------------------------------|
Bass 1                                                                |
G |-------------------------------------------------------------------|
D |--8----------\3-----------------------------------3-------3--------|
A |------------------------------------------------------1-------1----|
E |-------------------------------------------------------------------|
 1.  wall now when she was young and I wasn't not even
 2.  preach man   you know I just want to have fun  go to the 

Gt2
e |----------6-------6-----6-----6---6-----------6-----------6---6----|
B |--------------6-----6-----6-----------6-----------6----------------|
G |----------------------6-----6-------------6-----------6-----6------|
D |-------------------------------------------------------------------|
A |-------------------------------------------------------------------|
E |-------------------------------------------------------------------|
Bass 1                                                                |
G |-------------------------------------------------------------------|
D |------------------3-------3----------------------------------------|
A |----------------------1-------1------------------------------------|
E |-------------------------------------------------------------------|
 1. born yet if you think i know a little more than
 2. beach man  that's all I am I'm just a simple guy who


BRIDGE
Gt2. 1 + 2 + 3 + 4 + 5 + 6 + 7 + 8 + 1 + 2 + 3 + 4 + 5 + 6 + 7 + 8 +  |
     C#              Cm
e |----------9---------------8-------8-----------8-------8---8---8----|
B |----------------------------------9-----------8-----------6--------|
G |------10----------8-----------8-----------8---------8---8---8------|
D |-------------------------------------------------------------------|
A |-------------------------------------------------------------------|
E |-------------------------------------------------------------------|
Bass 1                                                                |
G |-------------------------------------------------------------------|
D |-------------------------------------------------------------------|
A |--4-----------------------4------3----------------3-------3---3----|
E |-------------------------------------------------------------------|
     talks when you put a microphone in front of him




CHORUS (1:30)
Gt2.
e |-------------------------------------------------------------------|
B |----------6-----------6-----------6-----------6-----------6--------|
G |------5-----------5-----------5-----------5-----------5-------5----|
D |--6-----------6-----------6-----------6-----------6----------------|
A |-------------------------------------------------------------------|
E |-------------------------------------------------------------------|
 1.                  You            twisted little girl

Gt2.
e |-------------------------------------------------------------------|
B |----------6-----------6-----------6-----------6-----------6--------|
G |------5-----------5-----------5-----------5-----------5-------5----|
D |--6-----------6-----------6-----------6-----------6----------------|
A |-------------------------------------------------------------------|
E |-------------------------------------------------------------------|
 1.                  Showin them what life   is      all     about

Gt2.
e |----------9-----------9-----------9---------------9-----------9----|
B |------9-------9-----------9-----------9---------------9------------|
G |--10--------------10----------10----------10--10----------10-------|
D |-------------------------------------------------------------------|
A |-------------------------------------------------------------------|
E |-------------------------------------------------------------------|
 1.                                  Where did all the

Gt2.
e |----------9---------------8-------8-----------8---------8--8---8---|
B |------9-------9-------9--------------------------------------------|
G |--10--10----------8-----------8-----------8-----------8---8---8----|
D |-------------------------------------------------------------------|
A |-------------------------------------------------------------------|
E |-------------------------------------------------------------------|
 1.  Time            go?             Every          where  is ...



SOLO (1:41-2:42)
Gt3.      slowly bend up a whole tone
e |-------------------------------------------------------------------|
B |-------------------------------------------------------------------|
G |--15b17~~~---------------------------------------17r--15--13--15---|
D |-------------------------------------------------------------------|
A |-------------------------------------------------------------------|
E |-------------------------------------------------------------------|
Gt2.                                                                  |
e |-------------------------------------------------------------------|
B |----------6-----------6-----------6-----------6-----------6--------|
G |------5-----------5-----------5-----------5-----------5-------5----|
D |--6-----------6-----------6-----------6-----------6----------------|
A |-------------------------------------------------------------------|
E |-------------------------------------------------------------------|

Gt3.
e |-------------------------------------------------------------------|
B |------------------------------------------------------14b16--------|
G |--15b17---17r15---13-----------------------------------------------|
D |----------------------14~~~----------------------------------------|
A |-------------------------------------------------------------------|
E |-------------------------------------------------------------------|
Gt2.                                                                  |
e |-------------------------------------------------------------------|
B |----------6-----------6-----------6-----------6-----------6-----6--|
G |------5-----------5-----------5-----------5-----------5------------|
D |--6-----------6-----------6-----------6-----------6-----------6----|
A |-------------------------------------------------------------------|
E |-------------------------------------------------------------------|

Gt3.
e |-------------------------------------------------------------------|
B |--16r14~~~----------------------------------------14--13--11--13---|
G |-------------------------------------------------------------------|
D |-------------------------------------------------------------------|
A |-------------------------------------------------------------------|
E |-------------------------------------------------------------------|
Gt2.                                                                  |
e |----------6-----------6-----------6-----------6-----------6--------|
B |------6-----------6-----------6-----------6-------6----------------|
G |--6-----------6-----------6-----------6---------------6-------6----|
D |-------------------------------------------------------------------|
A |-------------------------------------------------------------------|
E |-------------------------------------------------------------------|

Gt3.
e |-------------------------------------------------------------------|
B |--13b14~~~~-------11~~~~~~-----------------------------------------|
G |--------------------------------------------------13-12-10---------|
D |----------------------------------------------------------13-11-10-|
A |-------------------------------------------------------------------|
E |-------------------------------------------------------------------|
Gt2.                                                                  |
e |----------6-------6-----6-----6---6-----------6-----------6---6----|
B |--------------6-----6-----6-----------6-----------6----------------|
G |----------------------6-----6-------------6-----------6-----6------|
D |-------------------------------------------------------------------|
A |-------------------------------------------------------------------|
E |-------------------------------------------------------------------|

Gt3.
e |--15h16~~~~~~~~-----------------------------------16--15--13--15---|
B |-------------------------------------------------------------------|
G |-------------------------------------------------------------------|
D |-------------------------------------------------------------------|
A |-------------------------------------------------------------------|
E |-------------------------------------------------------------------|
Gt2.                                                                  |
e |-------------------------------------------------------------------|
B |----------6-----------6-----------6-----------6-----------6-----6--|
G |------5-----------5-----------5-----------5-----------5------------|
D |--6-----------6-----------6-----------6-----------6-----------6----|
A |-------------------------------------------------------------------|
E |-------------------------------------------------------------------|

Gt3.
e |--15--15b16-------16--13~~~-------------------------------------13-|
B |------------------------------------------------------13--16b18----|
G |------------------------------------------------13-15--------------|
D |--------------------------------------------15---------------------|
A |-------------------------------------------------------------------|
E |-------------------------------------------------------------------|
Gt2.                                                                  |
e |-------------------------------------------------------------------|
B |----------6-----------6-----------6-----------6-----------6---6----|
G |------5-----------5-----------5-----------5-------5----------------|
D |--6-----------6-----------6-----------6---------------6------------|
A |-------------------------------------------------------------------|
E |-------------------------------------------------------------------|

Gt3.
e |--13------18b20---------------20r18---------------20r18-------16---|
B |-------------------------------------------------------------------|
G |-------------------------------------------------------------------|
D |-------------------------------------------------------------------|
A |-------------------------------------------------------------------|
E |-------------------------------------------------------------------|
Gt2.                                                                  |
e |----------6-----------6-----------6-----------6-----------6--------|
B |------6-----------6-----------6-----------6-------6----------------|
G |--6-----------6-----------6-----------6---------------6-------6----|
D |-------------------------------------------------------------------|
A |-------------------------------------------------------------------|
E |-------------------------------------------------------------------|

Gt3.
e |--18--18b20~~~--------------15b16-----11~~~------------------------|
B |-------------------------------------------------------------------|
G |-------------------------------------------------------------------|
D |-------------------------------------------------------------------|
A |-------------------------------------------------------------------|
E |-------------------------------------------------------------------|
Gt2.                                                                  |
e |----------6-------6-----6-----6---------------6---------------6----|
B |--------------6-----6-----6-----------------------6---------6------|
G |--6---------------6---6-----6-----6-------6-----------6------------|
D |----------------------------------------------------------8--------|
A |-------------------------------------------------------------------|
E |-------------------------------------------------------------------|

Gt3.
e |--18--18--18--20--20----------16--16--18--18--15--16---------------|
B |-------------------------------------------------------------------|
G |--15--15--15--17--17----------13--13--15--15--12--13---------------|
D |-------------------------------------------------------------------|
A |-------------------------------------------------------------------|
E |-------------------------------------------------------------------|
Gt2.                                                                  |
e |-------------------------------------------------------------------|
B |----------6-------6-----6---------6-----------6-----------6--------|
G |------5---------------6-------------------5-----------5-------5----|
D |--6-----------6---------------6-------6-----------6----------------|
A |-------------------------------------------------------------------|
E |-------------------------------------------------------------------|

Gt3.
e |--18--18--18--20--20----------16--16--18--18-13s15-16--------------|
B |-------------------------------------------------------------------|
G |--15--15--15--17--17----------13--13--15--15-10s12-13--------------|
D |-------------------------------------------------------------------|
A |-------------------------------------------------------------------|
E |-------------------------------------------------------------------|
Gt2.                                                                  |
e |-------------------------------------------------------------------|
B |----------6-----------6-----------6-----------6-----------6--------|
G |------5-----------5-----------5-----------5-----------5------------|
D |--6-----------6-----------6-----------6-----------6----------------|
A |-------------------------------------------------------------------|
E |-------------------------------------------------------------------|

Gt3.
e |--15--15--15--16--16----------13--13--15--15-----------------------|
B |----------------------------------------------14--14--16--14--13---|
G |--12--12--12--13--13----------10--10--12--12-----------------------|
D |----------------------------------------------11--11--13--11--10---|
A |-------------------------------------------------------------------|
E |-------------------------------------------------------------------|
Gt2.                                                                  |
e |----------6-----------6-----------6-----------6-----------6--------|
B |------6-----------6-----------6-----------6-------6----------------|
G |--6-----------6-----------6-----------6---------------6-------6----|
D |-------------------------------------------------------------------|
A |-------------------------------------------------------------------|
E |-------------------------------------------------------------------|

Gt3.
e |----------------------------------------------------------13--15---|
B |--11h13-11s9--8h9---8s6---5~~-----6~~~------------8~~~-------------|
G |-------------------------------------------------------------------|
D |--8h10--8s6---5h6---5s3---2~~-----3~~~------------5~~~-------------|
A |-------------------------------------------------------------------|
E |-------------------------------------------------------------------|
Gt2.                                                                  |
e |----------6-------------6-------6-6-----------6----------6-----6---|
B |------------------------------6------------------------------------|
G |--6-----------6---6---6-6-----------------6-----------6-----6------|
D |-------------------------------------------------------------------|
A |-------------------------------------------------------------------|
E |-------------------------------------------------------------------|
(2:22)
Gt3.
e |-/16---------15-16-15-----13-13h14--13~~-----11-11h13--11~~--------|
B |-------------------------------------------------------------------|
G |-------------------------------------------------------------------|
D |-------------------------------------------------------------------|
A |-------------------------------------------------------------------|
E |-------------------------------------------------------------------|
Gt2.                                                                  |
e |----4-----4-------8---------------8--------------------------------|
B |----4-6---4-6-------9---9---9-----9-9---8---9-----9-----8-----6----|
G |------6-----6---------10--------------8---------------8-8-8-8-8-8--|
D |--------------------------10--10----10----10----10-----------------|
A |-------------------------------------------------------------------|
E |-------------------------------------------------------------------|

Gt3.
e |-/20~~~~--18-18h20-18-----16------16--------------15---------13s15-|
B |----------------------------------------------13-------------------|
G |-------------------------------------------------------------------|
D |-------------------------------------------------------------------|
A |-------------------------------------------------------------------|
E |-------------------------------------------------------------------|
Gt2.                                                                  |
e |----4-----4-------8---------------8--------------------------------|
B |----4-6---4-6-------9---9---9-----9-9---8---9-----9-----8-----6----|
G |------6-----6---------10--------------8---------------8-8-8-8-8-8--|
D |--------------------------10--10----10----10----10-----------------|
A |-------------------------------------------------------------------|
E |-------------------------------------------------------------------|

Gt3.
e |-16~~~-----15----13-15/20----20-22-20-18--16-15-13-----------------|
B |--------13----------------------------------------16-14-13---------|
G |-----------------------------------------------------------15-14-12|
D |-------------------------------------------------------------------|
A |-------------------------------------------------------------------|
E |-------------------------------------------------------------------|
Gt2.                                                                  |
e |----4-----4-------8---------------8--------------------------------|
B |----4-6---4-6-------9---9---9-----9-9---8---9-----9-----8-----6----|
G |------6-----6---------10--------------8---------------8-8-8-8-8-8--|
D |--------------------------10--10----10----10----10-----------------|
A |-------------------------------------------------------------------|
E |-------------------------------------------------------------------|


That's the bulk of it...


comments
print report bad tab
1 comment total.
0 reply
Towers93 wrote on November 28 2009, 09:56 pm

It looks good but i wish it were on Guitarpro.

I want to post or [tab]
guest
You may want to rate the tab now too:
select rating
Please do not post tabs as comments. Select "correction" instead!