Oops, an error
Loading. Please wait.

Queen Of The Nile Tab

ver1
ver1

Whole song

Interactive

More versions @911Tabs.com
957 views 1 this week
1 commentread comment
1 2 3 4 5
please rate
Autoscroll
+/-
esc
set tempo
stop
Contributor
Difficulty
Tabbers playing skills
intermediate
advanced ++
WARNING: You are trying to view
                                    content from Ultimate-Guitar.com
                                    in an unauthorized application,
                                    which is prohibited.

                                    Please use an official Ultimate
                                    Guitar Tabs application for iPhone,
                                    iPad or Android to access legitimate
                                    chords, guitar, bass, and drum tabs
                                    from Ultimate-Guitar.com database.

                                    Type "ultimate guitar tabs" in Apple
                                    App Store's or Android Market's
                                    search to find the application.
-------------------------------------------------------------------------------
                             QUEEN OF THE NILE - Dangerous Toys
-------------------------------------------------------------------------------
Tabbed by: Isaias Garcia (TexasFury)

Tuning: Standard


Rhythm - left



        PM PM    PM    PM PM       PM PM                                                  
                                                  |--3--|                                 
     E  E  E  E  E  E  E  E     E  E  E  E  E  E  S  S  S  E     Q    E  E  E  E  E  E    
E||--------------------------|--------------------------------|--------------------------|
B||--------------------------|--------------------------------|----------0--L--------x---|
G||--2--------2-----4--------|--4--------4--L--5--5p-4p-2p-0--|----------------5-----x---|
D||--0--0--0--0--0--0--0--0--|--0--0--0--0--L-----------------|--5----5-----------5--x---|
A||--------------------------|--------------------------------|--3-------------------2s--|
E||--------------------------|--------------------------------|--------------------------|


                                 PM PM    PM    PM PM       PM PM                       
                                                                           |--3--|      
  E  E  E  E   E  E  E  E     E  E  E  E  E  E  E  E     E  E  E  E  E  E  S  S  S  E   
---------------------------|--------------------------|--------------------------------|
---------------------------|--------------------------|--------------------------------|
-----0------------0--------|--2--------2-----4--------|--4--------4--L--5--5p-4p-2p-0--|
--------2--x---------4-----|--0--0--0--0--0--0--0--0--|--0--0--0--0--L-----------------|
--3--------3s--5--------5--|--------------------------|--------------------------------|
---------------------------|--------------------------|--------------------------------|


                                                            PM PM    PM    PM PM  
  Q    E  E  E  E  E  E      E  E  E  E   E  E  E  E     E  E  E  E  E  E  E  E   
--------------------------|---------------------------|--------------------------|
----------0--L--------x---|---------------------------|--------------------------|
----------------5-----x---|-----0------------0--------|--2--------2-----4--------|
--5----5-----------5--x---|--------2--x---------4-----|--0--0--0--0--0--0--0--0--|
--3-------------------2s--|--3--------3s--5--------5--|--------------------------|
--------------------------|---------------------------|--------------------------|


     PM PM                                                                              
                    |--3--|                                                             
  E  E  E  E  E  E  S  S  S  E     Q    E  E  E  E  E  E      E  E  E  E   E  E  E  E   
--------------------------------|--------------------------|---------------------------|
--------------------------------|----------0--L--------x---|---------------------------|
--4--------4--L--5--5p-4p-2p-0--|----------------5-----x---|-----0------------0--------|
--0--0--0--0--L-----------------|--5----5-----------5--x---|--------2--x---------4-----|
--------------------------------|--3-------------------2s--|--3--------3s--5--------5--|
--------------------------------|--------------------------|---------------------------|


     PM PM    PM    PM PM       PM PM                                             
                                               |--3--|                            
  E  E  E  E  E  E  E  E     E  E  E  E  E  E  S  S  S  E     H.           E  E   
--------------------------|--------------------------------|---------------------|
--------------------------|--------------------------------|---------------------|
--2--------2-----4--------|--4--------4--L--5--5p-4p-2p-0--|---------------------|
--0--0--0--0--0--0--0--0--|--0--0--0--0--L-----------------|--5------------L--5--|
--------------------------|--------------------------------|--3------------L--2--|
--------------------------|--------------------------------|---------------------|


                            PM PM PM PM PM PM    PM PM PM                                        
  W                   E  E  E  E  E  E  E  E     E  E  E  E  E  E  E  E     H.           E  E    
-------------------|--------------------------|--------------------------|----------------------|
-------------------|--------------------------|--------------------------|----------------------|
-------------------|--------------------------|-----------------------7--|--L-------------------|
--L----------------|--------------------------|-----------------7-----5--|--L-------------------|
--L----------------|--5--5--------------------|-----------5-----5--------|------------------2s--|
-------------------|--3--3--3--3--3--3--3--3--|--3--3--3--3--------------|----------------------|


                                    PM PM PM PM PM PM    PM PM PM                 
  E  E  E  E   E  E  E  E     E  E  E  E  E  E  E  E     E  E  E  E  E  E  E  E   
---------------------------|--------------------------|--------------------------|
---------------------------|--------------------------|--------------------------|
-----0------------0--------|--x-----------------------|-----------------------7--|
--------2--x---------4-----|--x-----------------------|-----------------7-----5--|
--3--------3s--5--------5--|--5--5--------------------|-----------5-----5--------|
---------------------------|--3--3--3--3--3--3--3--3--|--3--3--3--3--------------|


                                                            PM PM    PM PM    PM PM     
  H.           E  E      E  E  E  E   E  E  E  E     E   E  S  S  E  S  S  E  S  S  E   
----------------------|---------------------------|------------------------------------|
----------------------|---------------------------|------------------------------------|
--L-------------------|-----0------------0--------|--x---------------------------------|
--L-------------------|--------2--x---------4-----|--x---------------------------------|
------------------2s--|--3--------3s--5--------5--|--4s--5--------5--------5--------5--|
----------------------|---------------------------|--2s--3--3--3--3--3--3--3--3--3--3--|


  PM PM    PM PM    PM PM                                                              
  S  S  E  S  S  E  S  S  E  E  E     H.           E  E      E  E  E  E   E  E  E  E   
-----------------------------------|----------------------|---------------------------|
-----------------------------------|----------------------|---------------------------|
--------------------------------7--|--L-------------------|-----0------------0--------|
--------------------------7-----5--|--L-------------------|--------2--x---------4-----|
--------5--------5--------5--------|------------------2s--|--3--------3s--5--------5--|
--3--3--3--3--3--3--3--3-----------|----------------------|---------------------------|


  E   E  E  E  E  E  E  E     E  E  E  E  E  E  E  E     H.           E  E    
---------------------------|--------------------------|----------------------|
---------------------------|--------------------------|----------------------|
--x------------------------|-----------------------7--|--L-------------------|
--x------------------------|-----------------7-----5--|--L-------------------|
--4s--5-----5-----5-----5--|-----5-----5-----5--------|------------------2s--|
--2s--3-----3-----3-----3--|-----3-----3--------------|----------------------|


  E  E  E  E   E  E  E  E     Q.     E  Q.     E     E  E  E  E  E  E  E  E   
---------------------------|----------------------|-----------3-----3--L--x--|
---------------------------|----------------------|-----------3-----3--L--x--|
-----0------------0--------|----------------------|--------5-----5--------x--|
--------2--x---------4-----|--9------9--L------5--|--L--5-----------------7--|
--3--------3s--5--------5--|--7------7--L------3--|--L--------------------5--|
---------------------------|----------------------|--------------------------|


  Q.     E  E  E  E  E     E  E  E   E  E  E  E  E     Q.     E  Q.     E   
------------------------|---------------------------|----------------------|
------------------------|---------------------------|----------------------|
------------------------|---------------------------|----------------------|
--L------7--L--7--L-----|---------------------4--5--|--9------9--L------5--|
--L------5--L--5--L-----|--------2h--3--5--7--------|--7------7--L------3--|
---------------------3--|--L--5---------------------|----------------------|


                                                                                 PM PM PM PM PM PM  
  E  E  E  E  E  E  E  E     W                   E  E  E  E  E  E  Q       E  E  E  E  E  E  E  E   
--------------3--------x--|-------------------|-------------------------|--------------------------|
-----------3-----3--L--x--|-------------------|-------------------------|--------------------------|
--------5--------------x--|-------------------|-------------------------|--------------------------|
--L--5-----------------7--|--L----------------|-------------------------|--------------------------|
--L--------------------5--|--L----------------|-------------------------|--5--5--------------------|
--------------------------|-------------------|--7--0--L--1--L--2--L----|--3--3--3--3--3--3--3--3--|


  PM PM PM                                                                    
  E  E  E  E  E  E  E  E     H.           E  E      E  E  E  E   E  E  E  E   
--------------------------|----------------------|---------------------------|
--------------------------|----------------------|---------------------------|
-----------------------7--|--L-------------------|-----0------------0--------|
-----------------7-----5--|--L-------------------|--------2--x---------4-----|
-----------5-----5--------|------------------2s--|--3--------3s--5--------5--|
--3--3--3--3--------------|----------------------|---------------------------|


        PM PM PM PM PM PM    PM PM PM                                        
  E  E  E  E  E  E  E  E     E  E  E  E  E  E  E  E     H.           E  E    
--------------------------|--------------------------|----------------------|
--------------------------|--------------------------|----------------------|
--x-----------------------|-----------------------7--|--L-------------------|
--x-----------------------|-----------------7-----5--|--L-------------------|
--5--5--------------------|-----------5-----5--------|------------------2s--|
--3--3--3--3--3--3--3--3--|--3--3--3--3--------------|----------------------|


                                     PM PM    PM PM    PM PM     
  E  E  E  E   E  E  E  E     E   E  S  S  E  S  S  E  S  S  E   
---------------------------|------------------------------------|
---------------------------|------------------------------------|
-----0------------0--------|--x---------------------------------|
--------2--x---------4-----|--x---------------------------------|
--3--------3s--5--------5--|--4s--5--------5--------5--------5--|
---------------------------|--2s--3--3--3--3--3--3--3--3--3--3--|


  PM PM    PM PM    PM PM                                                              
  S  S  E  S  S  E  S  S  E  E  E     H.           E  E      E  E  E  E   E  E  E  E   
-----------------------------------|----------------------|---------------------------|
-----------------------------------|----------------------|---------------------------|
--------------------------------7--|--L-------------------|-----0------------0--------|
--------------------------7-----5--|--L-------------------|--------2--x---------4-----|
--------5--------5--------5--------|------------------2s--|--3--------3s--5--------5--|
--3--3--3--3--3--3--3--3-----------|----------------------|---------------------------|


  E   E  E  E  E  E  E  E     E  E  E  E  E  E  E  E     H.           E  E    
---------------------------|--------------------------|----------------------|
---------------------------|--------------------------|----------------------|
--x------------------------|-----------------------7--|--L-------------------|
--x------------------------|-----------------7-----5--|--L-------------------|
--4s--5-----5-----5-----5--|-----5-----5-----5--------|------------------2s--|
--2s--3-----3-----3-----3--|-----3-----3--------------|----------------------|


  E  E  E  E   E  E  E  E     Q.     E  Q.     E     E  E  E  E  E  E  E  E   
---------------------------|----------------------|--------------3--------x--|
---------------------------|----------------------|-----------3-----3--L--x--|
-----0------------0--------|----------------------|--------5--------------x--|
--------2--x---------4-----|--9------9--L------5--|--L--5-----------------7--|
--3--------3s--5--------5--|--7------7--L------3--|--L--------------------5--|
---------------------------|----------------------|--------------------------|


  Q.     E  E  E  E  E     E  E  E   E  E  E  E  E     Q.     E  Q.     E   
------------------------|---------------------------|----------------------|
------------------------|---------------------------|----------------------|
------------------------|---------------------------|----------------------|
--L------7--7--7--L-----|---------------------4--5--|--9------9--L------5--|
--L------5--5--5--L-----|--------2h--3--5--7--------|--7------7--L------3--|
---------------------3--|--L--5---------------------|----------------------|


  E  E  E  E  E  E  E  E     W                   E  E  E  E  E  E  Q       E  E  E  E  Q.     E   
--------------3--------x--|-------------------|-------------------------|-----3--2------------x--|
-----------3-----3--L--x--|-------------------|-------------------------|-----3---------------3--|
--------5--------------x--|-------------------|-------------------------|--2--------2--L------5--|
--L--5-----------------7--|--L----------------|-------------------------|--0--------0--L---------|
--L--------------------5--|--L----------------|-------------------------|------------------------|
--------------------------|-------------------|--7--0--L--1--L--2--L----|------------------------|


  E  E   E  E  Q.     E     E  E  E  E  E  E  E  E     E  E   E  E  H         
-----5p--3------------x--|-----0--L-----------------|-----3p--2--------------|
--L-------------------x--|-----3--L--------------3--|--L---------3-----------|
--L---------5--L------3--|--L--------3--L--3-----2--|--L------------2--------|
------------5--L------3--|--L--------3--L--3-----0--|--L---------------------|
----------------------1--|--L-----------------------|------------------------|
-------------------------|--------------------------|------------------------|


                      PM                                                       
  E  E  E  E  Q    E  E     E  E  E  E  Q    E  E     E  E  E  E  E  E  E  E   
--x--3--3--5--L----L--x--|-----7--L--5--3----L-----|-----0--L-----0--0--0--x--|
--3--------3--L----L--x--|--3-------------------3--|--3--------3-----------x--|
--2-------------------5--|--5-------------------3--|--3--------------------x--|
--0-------------------x--|-------------------------|-----------------------7--|
-------------------------|-------------------------|-----------------------5--|
-------------------------|-------------------------|--------------------------|


                                  PM PM                                        
  E  E  E  E  E  E  E  E     Q    E  E  E  E  E  E     E  E  E  E  Q    E  E   
--------------------------|-------------------------|-------------------------|
--------------------------|-------------------------|-------------------------|
--------------------------|-------------------------|-------------------------|
--L--7--9--7--L--7--9--9--|--9----------9--9--9--9--|--L--9--9--9--9----------|
--L--5--5--5--L--5--5--5--|--7----------7--7--7--7--|--L--7--7--7--7-------5--|
--------------------------|-------0--0--------------|----------------------3--|


  E  E  Q    E  E  E  E     E  E  E  E  E  E  E  E     E  E  E  E  E  E  E  E   
-------------------------|--------------------------|--------------------------|
-------------------------|--------------------------|--------------------------|
-------------------------|--------------------------|--------------------------|
-------------------------|-----------------7-----9--|--9--9--9--9--9--9--9--9--|
--5--4--5----5--4--5--5--|--L--5--5--5--5--5-----7--|--7--7--7--7--7--7--7--7--|
--3--2--3----3--2--3--3--|--L--2--3--2--3-----------|--------------------------|


  E  E  E  E  E   E  E   E     E  E  E  E  E  E  E  E     E  E  E  E  E  E  E  E   
----------------------------|--------------------------|--------------------------|
----------------------------|--------------------------|--------------------------|
----------------------------|--------------------------|--------------------------|
--9--9--9--9--9S--4--LS--7--|--7--7--7--7--7--7--7--7--|--7--7--7--7--7--7--7--9--|
--7--7--7--7--7S--2--LS--5--|--5--5--5--5--5--5--5--5--|--5--5--5--5--5--5--5--7--|
----------------------------|--------------------------|--------------------------|


     PM    PM PM                                           PM      PM   PM PM PM PM  
  E  E  E  E  E  E  E  E     E  E  E  E  Q     E  E     E  S  S E  S  S E  E  E  E   
--------------------------|--------------------------|------------------------------|
--------------------------|--------------------------|------------------------------|
--------------------------|--------------------------|------------------------------|
--9-----9--------9--L--9--|--L-----9--9--L\----------|------------------------------|
--7-----7--------7--L--7--|--L-----7--7--L\-------5--|--5-------5-------------------|
-----0-----0--0-----------|-----0-----------------3--|--3--3--3-3--3--3-3--3--3--3--|


                                PM PM PM PM PM PM PM    PM PM PM PM PM           
  E  E  E  E  E  E  E  E     E  E  E  E  E  E  E  E     E  E  E  E  E  E  E  E   
--------------------------|--------------------------|--------------------------|
--------------------------|--------------------------|--------------------------|
--------------------------|--------------------------|--------------------------|
--------------------------|--------------------------|-----------------------4--|
--5--5--5--5--5--5--L--7--|--L--7--7--7--7--7--7--7--|--7--7--7--7--7--7--L--2--|
--3--3--3--3--3--3--L--5--|--L--5--5--5--5--5--5--5--|--5--5--5--5--5--5--L-----|


     PM PM PM PM PM                                          PM PM PM PM PM PM  
  E  E  E  E  E  E  Q       E  E  E  E  E  E  E  E     E  E  E  E  E  E  E  E   
-------------------------|--------------------------|--------------------------|
-------------------------|--------------------------|--------------------------|
-------------------------|--------------------------|--------------------------|
--L--4--4--4--4--4--4----|--5--5--5--5--7--7--7--7--|--------------------------|
--L--2--2--2--2--2--2----|--3--3--3--3--5--5--5--5--|--5--5--------------------|
-------------------------|--------------------------|--3--3--3--3--3--3--3--3--|


  PM PM PM                                                                    
  E  E  E  E  E  E  E  E     H.           E  E      E  E  E  E   E  E  E  E   
--------------------------|----------------------|---------------------------|
--------------------------|----------------------|---------------------------|
-----------------------7--|--L-------------------|-----0------------0--------|
-----------------7-----5--|--L-------------------|--------2--x---------4-----|
-----------5-----5--------|------------------2s--|--3--------3s--5--------5--|
--3--3--3--3--------------|----------------------|---------------------------|


  E   E  E  E  E  E  E  E     E  E  E  E  E  E  E  E     H.           E  E    
---------------------------|--------------------------|----------------------|
---------------------------|--------------------------|----------------------|
--x------------------------|-----------------------7--|--L-------------------|
--x------------------------|-----------------7-----5--|--L-------------------|
--4s--5-----5-----5-----5--|-----5-----5-----5--------|------------------2s--|
--2s--3-----3-----3-----3--|-----3-----3--------------|----------------------|


  E  E  E  E   E  E  E  E     Q.     E  Q.     E     E  E  E  E  E  E  E  E   
---------------------------|----------------------|--------------3--------x--|
---------------------------|----------------------|-----------3-----3--L--x--|
-----0------------0--------|----------------------|--------5--------------x--|
--------2--x---------4-----|--9------9--L------5--|--L--5-----------------7--|
--3--------3s--5--------5--|--7------7--L------3--|--L--------------------5--|
---------------------------|----------------------|--------------------------|


  Q.     E  E  E  E  E     E  E  E   E  E  E  E  E     Q.     E  Q.     E   
------------------------|---------------------------|----------------------|
------------------------|---------------------------|----------------------|
------------------------|---------------------------|----------------------|
--L------7--7--7--L-----|---------------------4--5--|--9------9--L------5--|
--L------5--5--5--L-----|--------2h--3--5--7--------|--7------7--L------3--|
---------------------3--|--L--5---------------------|----------------------|


                                                                              PM PM    PM    PM PM  
  E  E  E  E  E  E  E  E     W                   E  E  E  E  E  E  Q       E  E  E  E  E  E  E  E   
--------------3--------x--|-------------------|-------------------------|--------------------------|
-----------3-----3--L--x--|-------------------|-------------------------|--------------------------|
--------5--------------x--|-------------------|-------------------------|--2--------2-----4--------|
--L--5-----------------7--|--L----------------|-------------------------|--0--0--0--0--0--0--0--0--|
--L--------------------5--|--L----------------|-------------------------|--------------------------|
--------------------------|-------------------|--7--0--L--1--L--2--L----|--------------------------|


     PM PM                                                                              
                    |--3--|                                                             
  E  E  E  E  E  E  S  S  S  E     Q    E  E  E  E  E  E      E  E  E  E   E  E  E  E   
--------------------------------|--------------------------|---------------------------|
--------------------------------|----------0--L--------x---|---------------------------|
--4--------4--L--5--5p-4p-2p-0--|----------------5-----x---|-----0------------0--------|
--0--0--0--0--L-----------------|--5----5-----------5--x---|--------2--x---------4-----|
--------------------------------|--3-------------------2s--|--3--------3s--5--------5--|
--------------------------------|--------------------------|---------------------------|


     PM PM    PM    PM PM       PM PM                                                  
                                               |--3--|                                 
  E  E  E  E  E  E  E  E     E  E  E  E  E  E  S  S  S  E     Q    E  E  E  E  E  E    
--------------------------|--------------------------------|--------------------------|
--------------------------|--------------------------------|----------0--L--------x---|
--2--------2-----4--------|--4--------4--L--5--5p-4p-2p-0--|----------------5-----x---|
--0--0--0--0--0--0--0--0--|--0--0--0--0--L-----------------|--5----5-----------5--x---|
--------------------------|--------------------------------|--3-------------------2s--|
--------------------------|--------------------------------|--------------------------|


                                 PM PM    PM    PM PM       PM PM                       
                                                                           |--3--|      
  E  E  E  E   E  E  E  E     E  E  E  E  E  E  E  E     E  E  E  E  E  E  S  S  S  E   
---------------------------|--------------------------|--------------------------------|
---------------------------|--------------------------|--------------------------------|
-----0------------0--------|--2--------2-----4--------|--4--------4--L--5--5p-4p-2p-0--|
--------2--x---------4-----|--0--0--0--0--0--0--0--0--|--0--0--0--0--L-----------------|
--3--------3s--5--------5--|--------------------------|--------------------------------|
---------------------------|--------------------------|--------------------------------|


                                                            PM PM    PM    PM PM  
  Q    E  E  E  E  E  E      E  E  E  E   E  E  E  E     E  E  E  E  E  E  E  E   
--------------------------|---------------------------|--------------------------|
----------0--L--------x---|---------------------------|--------------------------|
----------------5-----x---|-----0------------0--------|--2--------2-----4--------|
--5----5-----------5--x---|--------2--x---------4-----|--0--0--0--0--0--0--0--0--|
--3-------------------2s--|--3--------3s--5--------5--|--------------------------|
--------------------------|---------------------------|--------------------------|


     PM PM                                                                 
                    |--3--|                                                
  E  E  E  E  E  E  S  S  S  E     H.           E  E     W                 
--------------------------------|---------------------|-------------------|
--------------------------------|---------------------|-------------------|
--4--------4--L--5--5p-4p-2p-0--|---------------------|-------------------|
--0--0--0--0--L-----------------|--5------------L--5--|--L----------------|
--------------------------------|--3------------L--2--|--L----------------|
--------------------------------|---------------------|-------------------|


     PM PM    PM PM     PM PM    PM PM       PM PM    PM PM                                
  E  S  S  E  S  S   E  S  S  E  S  S     E  S  S  E  S  S  Q    Q       W                 
---------------------------------------|------------------------------|-------------------|
---------------------------------------|------------------------------|-------------------|
---------------------------------------|------------------------------|-------------------|
--7--0--0--9--0--0--10--0--0--9--0--0--|--7--0--0--5--0--0--4----5----|--5----------------|
---------------------------------------|------------------------------|--3----------------|
---------------------------------------|------------------------------|-------------------|


                           
  W                                           E  E  Q     H          
-------------------------------------------|-----------------------||
-------------------------------------------|-----------------------||
-------------------------------------------|--7--7--L\-------------||
--L----------------------------------------|--5--5--L\-------------||
--L----------------------------------------|-----------------------||
-------------------------------------------|-----------------------||


Rhythm - right



        PM PM    PM    PM PM       PM PM                                                  
                                                  |--3--|                                 
     E  E  E  E  E  E  E  E     E  E  E  E  E  E  S  S  S  E     Q    E  E  E  E  E  E    
E||--------------------------|--------------------------------|--------------------------|
B||--------------------------|--------------------------------|----------0--L--------x---|
G||--2--------2-----4--------|--4--------4--L--5--5p-4p-2p-0--|----------------5-----x---|
D||--0--0--0--0--0--0--0--0--|--0--0--0--0--L-----------------|--5----5-----------5--x---|
A||--------------------------|--------------------------------|--3-------------------2s--|
E||--------------------------|--------------------------------|--------------------------|


                                 PM PM    PM    PM PM       PM PM                       
                                                                           |--3--|      
  E  E  E  E   E  E  E  E     E  E  E  E  E  E  E  E     E  E  E  E  E  E  S  S  S  E   
---------------------------|--------------------------|--------------------------------|
---------------------------|--------------------------|--------------------------------|
-----0------------0--------|--2--------2-----4--------|--4--------4--L--5--5p-4p-2p-0--|
--------2--x---------4-----|--0--0--0--0--0--0--0--0--|--0--0--0--0--L-----------------|
--3--------3s--5--------5--|--------------------------|--------------------------------|
---------------------------|--------------------------|--------------------------------|


                                                            PM PM    PM    PM PM  
  Q    E  E  E  E  E  E      E  E  E  E   E  E  E  E     E  E  E  E  E  E  E  E   
--------------------------|---------------------------|--------------------------|
----------0--L--------x---|---------------------------|--------------------------|
----------------5-----x---|-----0------------0--------|--2--------2-----4--------|
--5----5-----------5--x---|--------2--x---------4-----|--0--0--0--0--0--0--0--0--|
--3-------------------2s--|--3--------3s--5--------5--|--------------------------|
--------------------------|---------------------------|--------------------------|


     PM PM                                                                              
                    |--3--|                                                             
  E  E  E  E  E  E  S  S  S  E     Q    E  E  E  E  E  E      E  E  E  E   E  E  E  E   
--------------------------------|--------------------------|---------------------------|
--------------------------------|----------0--L--------x---|---------------------------|
--4--------4--L--5--5p-4p-2p-0--|----------------5-----x---|-----0------------0--------|
--0--0--0--0--L-----------------|--5----5-----------5--x---|--------2--x---------4-----|
--------------------------------|--3-------------------2s--|--3--------3s--5--------5--|
--------------------------------|--------------------------|---------------------------|


     PM PM    PM    PM PM       PM PM                                             
                                               |--3--|                            
  E  E  E  E  E  E  E  E     E  E  E  E  E  E  S  S  S  E     H.           E  E   
--------------------------|--------------------------------|---------------------|
--------------------------|--------------------------------|---------------------|
--2--------2-----4--------|--4--------4--L--5--5p-4p-2p-0--|---------------------|
--0--0--0--0--0--0--0--0--|--0--0--0--0--L-----------------|--5------------L--5--|
--------------------------|--------------------------------|--3------------L--2--|
--------------------------|--------------------------------|---------------------|


                            PM PM PM PM PM PM    PM PM PM                                        
  W                   E  E  E  E  E  E  E  E     E  E  E  E  E  E  E  E     H.           E  E    
-------------------|--------------------------|--------------------------|----------------------|
-------------------|--------------------------|--------------------------|----------------------|
-------------------|--------------------------|-----------------------7--|--L-------------------|
--L----------------|--------------------------|-----------------7-----5--|--L-------------------|
--L----------------|--5--5--------------------|-----------5-----5--------|------------------2s--|
-------------------|--3--3--3--3--3--3--3--3--|--3--3--3--3--------------|----------------------|


                                    PM PM PM PM PM PM    PM PM PM                 
  E  E  E  E   E  E  E  E     E  E  E  E  E  E  E  E     E  E  E  E  E  E  E  E   
---------------------------|--------------------------|--------------------------|
---------------------------|--------------------------|--------------------------|
-----0------------0--------|--x-----------------------|-----------------------7--|
--------2--x---------4-----|--x-----------------------|-----------------7-----5--|
--3--------3s--5--------5--|--5--5--------------------|-----------5-----5--------|
---------------------------|--3--3--3--3--3--3--3--3--|--3--3--3--3--------------|


                                                            PM PM    PM PM    PM PM     
  H.           E  E      E  E  E  E   E  E  E  E     E   E  S  S  E  S  S  E  S  S  E   
----------------------|---------------------------|------------------------------------|
----------------------|---------------------------|------------------------------------|
--L-------------------|-----0------------0--------|--x---------------------------------|
--L-------------------|--------2--x---------4-----|--x---------------------------------|
------------------2s--|--3--------3s--5--------5--|--4s--5--------5--------5--------5--|
----------------------|---------------------------|--2s--3--3--3--3--3--3--3--3--3--3--|


  PM PM    PM PM    PM PM                                                              
  S  S  E  S  S  E  S  S  E  E  E     H.           E  E      E  E  E  E   E  E  E  E   
-----------------------------------|----------------------|---------------------------|
-----------------------------------|----------------------|---------------------------|
--------------------------------7--|--L-------------------|-----0------------0--------|
--------------------------7-----5--|--L-------------------|--------2--x---------4-----|
--------5--------5--------5--------|------------------2s--|--3--------3s--5--------5--|
--3--3--3--3--3--3--3--3-----------|----------------------|---------------------------|


  E   E  E  E  E  E  E  E     E  E  E  E  E  E  E  E     H.           E  E    
---------------------------|--------------------------|----------------------|
---------------------------|--------------------------|----------------------|
--x------------------------|-----------------------7--|--L-------------------|
--x------------------------|-----------------7-----5--|--L-------------------|
--4s--5-----5-----5-----5--|-----5-----5-----5--------|------------------2s--|
--2s--3-----3-----3-----3--|-----3-----3--------------|----------------------|


  E  E  E  E   E  E  E  E     Q.     E  Q.     E     E  E  E  E  E  E  E  E   
---------------------------|----------------------|-----------3-----3--L--x--|
---------------------------|----------------------|-----------3-----3--L--x--|
-----0------------0--------|----------------------|--------5-----5--------x--|
--------2--x---------4-----|--9------9--L------5--|--L--5-----------------7--|
--3--------3s--5--------5--|--7------7--L------3--|--L--------------------5--|
---------------------------|----------------------|--------------------------|


  Q.     E  E  E  E  E     E  E  E   E  E  E  E  E     Q.     E  Q.     E   
------------------------|---------------------------|----------------------|
------------------------|---------------------------|----------------------|
------------------------|---------------------------|----------------------|
--L------7--L--7--L-----|---------------------4--5--|--9------9--L------5--|
--L------5--L--5--L-----|--------2h--3--5--7--------|--7------7--L------3--|
---------------------3--|--L--5---------------------|----------------------|


                                                                                 PM PM PM PM PM PM  
  E  E  E  E  E  E  E  E     W                   E  E  E  E  E  E  Q       E  E  E  E  E  E  E  E   
--------------3--------x--|-------------------|-------------------------|--------------------------|
-----------3-----3--L--x--|-------------------|-------------------------|--------------------------|
--------5--------------x--|-------------------|-------------------------|--------------------------|
--L--5-----------------7--|--L----------------|-------------------------|--------------------------|
--L--------------------5--|--L----------------|-------------------------|--5--5--------------------|
--------------------------|-------------------|--7--0--L--1--L--2--L----|--3--3--3--3--3--3--3--3--|


  PM PM PM                                                                    
  E  E  E  E  E  E  E  E     H.           E  E      E  E  E  E   E  E  E  E   
--------------------------|----------------------|---------------------------|
--------------------------|----------------------|---------------------------|
-----------------------7--|--L-------------------|-----0------------0--------|
-----------------7-----5--|--L-------------------|--------2--x---------4-----|
-----------5-----5--------|------------------2s--|--3--------3s--5--------5--|
--3--3--3--3--------------|----------------------|---------------------------|


        PM PM PM PM PM PM    PM PM PM                                        
  E  E  E  E  E  E  E  E     E  E  E  E  E  E  E  E     H.           E  E    
--------------------------|--------------------------|----------------------|
--------------------------|--------------------------|----------------------|
--x-----------------------|-----------------------7--|--L-------------------|
--x-----------------------|-----------------7-----5--|--L-------------------|
--5--5--------------------|-----------5-----5--------|------------------2s--|
--3--3--3--3--3--3--3--3--|--3--3--3--3--------------|----------------------|


                                     PM PM    PM PM    PM PM     
  E  E  E  E   E  E  E  E     E   E  S  S  E  S  S  E  S  S  E   
---------------------------|------------------------------------|
---------------------------|------------------------------------|
-----0------------0--------|--x---------------------------------|
--------2--x---------4-----|--x---------------------------------|
--3--------3s--5--------5--|--4s--5--------5--------5--------5--|
---------------------------|--2s--3--3--3--3--3--3--3--3--3--3--|


  PM PM    PM PM    PM PM                                                              
  S  S  E  S  S  E  S  S  E  E  E     H.           E  E      E  E  E  E   E  E  E  E   
-----------------------------------|----------------------|---------------------------|
-----------------------------------|----------------------|---------------------------|
--------------------------------7--|--L-------------------|-----0------------0--------|
--------------------------7-----5--|--L-------------------|--------2--x---------4-----|
--------5--------5--------5--------|------------------2s--|--3--------3s--5--------5--|
--3--3--3--3--3--3--3--3-----------|----------------------|---------------------------|


  E   E  E  E  E  E  E  E     E  E  E  E  E  E  E  E     H.           E  E    
---------------------------|--------------------------|----------------------|
---------------------------|--------------------------|----------------------|
--x------------------------|-----------------------7--|--L-------------------|
--x------------------------|-----------------7-----5--|--L-------------------|
--4s--5-----5-----5-----5--|-----5-----5-----5--------|------------------2s--|
--2s--3-----3-----3-----3--|-----3-----3--------------|----------------------|


  E  E  E  E   E  E  E  E     Q.     E  Q.     E     E  E  E  E  E  E  E  E   
---------------------------|----------------------|--------------3--------x--|
---------------------------|----------------------|-----------3-----3--L--x--|
-----0------------0--------|----------------------|--------5--------------x--|
--------2--x---------4-----|--9------9--L------5--|--L--5-----------------7--|
--3--------3s--5--------5--|--7------7--L------3--|--L--------------------5--|
---------------------------|----------------------|--------------------------|


  Q.     E  E  E  E  E     E  E  E   E  E  E  E  E     Q.     E  Q.     E   
------------------------|---------------------------|----------------------|
------------------------|---------------------------|----------------------|
------------------------|---------------------------|----------------------|
--L------7--7--7--L-----|---------------------4--5--|--9------9--L------5--|
--L------5--5--5--L-----|--------2h--3--5--7--------|--7------7--L------3--|
---------------------3--|--L--5---------------------|----------------------|


  E  E  E  E  E  E  E  E     W                   E  E  E  E  E  E  Q       E  E  E  E  Q.     E   
--------------3--------x--|-------------------|-------------------------|-----3--2------------x--|
-----------3-----3--L--x--|-------------------|-------------------------|-----3---------------3--|
--------5--------------x--|-------------------|-------------------------|--2--------2--L------5--|
--L--5-----------------7--|--L----------------|-------------------------|--0--------0--L---------|
--L--------------------5--|--L----------------|-------------------------|------------------------|
--------------------------|-------------------|--7--0--L--1--L--2--L----|------------------------|


  E  E   E  E  Q.     E     E  E  E  E  E  E  E  E     E  E   E  E  H         
-----5p--3------------x--|-----0--L-----------------|-----3p--2--------------|
--L-------------------x--|-----3--L--------------3--|--L---------3-----------|
--L---------5--L------3--|--L--------3--L--3-----2--|--L------------2--------|
------------5--L------3--|--L--------3--L--3-----0--|--L---------------------|
----------------------1--|--L-----------------------|------------------------|
-------------------------|--------------------------|------------------------|


  E  E  E  E  Q    E  E     E  E  E  E  E  E  E  E     E  E  E  E  E  E  E  E   
--2--3--3--2--L----L--x--|-----7-----5--3--------x--|-----0--L-----0--0--0-----|
--3--------3--L----L--3--|--3-----3--------3--3--3--|--L--------3-----------x--|
--2--------2--L----L--5--|--5-----5--------5--5--3--|--L--------3-----------x--|
--0--------0--L----L--x--|--------------------------|-----------------------7--|
-------------------------|--------------------------|-----------------------5--|
-------------------------|--------------------------|--------------------------|


                                  PM PM                                        
  E  E  E  E  E  E  E  E     Q    E  E  E  E  E  E     E  E  E  E  Q    E  E   
--------------------------|-------------------------|-------------------------|
--------------------------|-------------------------|-------------------------|
--------------------------|-------------------------|-------------------------|
--L--7--9--7--L--7--9--9--|--9----------9--9--9--9--|--L--9--9--9--9----------|
--L--5--5--5--L--5--5--5--|--7----------7--7--7--7--|--L--7--7--7--7-------5--|
--------------------------|-------0--0--------------|----------------------3--|


  E  E  Q    E  E  E  E     E  E  E  E  E  E  E  E     E  E  E  E  E  E  E  E   
-------------------------|--------------------------|--------------------------|
-------------------------|--------------------------|--------------------------|
-------------------------|--------------------------|--------------------------|
-------------------------|-----------------7-----9--|--9--9--9--9--9--9--9--9--|
--5--4--5----5--4--5--5--|--L--5--5--5--5--5-----7--|--7--7--7--7--7--7--7--7--|
--3--2--3----3--2--3--3--|--L--2--3--2--3-----------|--------------------------|


  E  E  E  E  E   E  E   E     E  E  E  E  E  E  E  E     E  E  E  E  E  E  E  E   
----------------------------|--------------------------|--------------------------|
----------------------------|--------------------------|--------------------------|
----------------------------|--------------------------|--------------------------|
--9--9--9--9--9S--4--LS--7--|--7--7--7--7--7--7--7--7--|--7--7--7--7--7--7--7--9--|
--7--7--7--7--7S--2--LS--5--|--5--5--5--5--5--5--5--5--|--5--5--5--5--5--5--5--7--|
----------------------------|--------------------------|--------------------------|


     PM    PM PM                                           PM      PM   PM PM PM PM  
  E  E  E  E  E  E  E  E     E  E  E  E  Q     E  E     E  S  S E  S  S E  E  E  E   
--------------------------|--------------------------|------------------------------|
--------------------------|--------------------------|------------------------------|
--------------------------|--------------------------|------------------------------|
--9-----9--------9--L--9--|--L-----9--9--L\----------|------------------------------|
--7-----7--------7--L--7--|--L-----7--7--L\-------5--|--5-------5-------------------|
-----0-----0--0-----------|-----0-----------------3--|--3--3--3-3--3--3-3--3--3--3--|


                                PM PM PM PM PM PM PM    PM PM PM PM PM           
  E  E  E  E  E  E  E  E     E  E  E  E  E  E  E  E     E  E  E  E  E  E  E  E   
--------------------------|--------------------------|--------------------------|
--------------------------|--------------------------|--------------------------|
--------------------------|--------------------------|--------------------------|
--------------------------|--------------------------|-----------------------4--|
--5--5--5--5--5--5--L--7--|--L--7--7--7--7--7--7--7--|--7--7--7--7--7--7--L--2--|
--3--3--3--3--3--3--L--5--|--L--5--5--5--5--5--5--5--|--5--5--5--5--5--5--L-----|


     PM PM PM PM PM                                          PM PM PM PM PM PM  
  E  E  E  E  E  E  Q       E  E  E  E  E  E  E  E     E  E  E  E  E  E  E  E   
-------------------------|--------------------------|--------------------------|
-------------------------|--------------------------|--------------------------|
-------------------------|--------------------------|--------------------------|
--L--4--4--4--4--4--4----|--5--5--5--5--7--7--7--7--|--------------------------|
--L--2--2--2--2--2--2----|--3--3--3--3--5--5--5--5--|--5--5--------------------|
-------------------------|--------------------------|--3--3--3--3--3--3--3--3--|


  PM PM PM                                                                    
  E  E  E  E  E  E  E  E     H.           E  E      E  E  E  E   E  E  E  E   
--------------------------|----------------------|---------------------------|
--------------------------|----------------------|---------------------------|
-----------------------7--|--L-------------------|-----0------------0--------|
-----------------7-----5--|--L-------------------|--------2--x---------4-----|
-----------5-----5--------|------------------2s--|--3--------3s--5--------5--|
--3--3--3--3--------------|----------------------|---------------------------|


  E   E  E  E  E  E  E  E     E  E  E  E  E  E  E  E     H.           E  E    
---------------------------|--------------------------|----------------------|
---------------------------|--------------------------|----------------------|
--x------------------------|-----------------------7--|--L-------------------|
--x------------------------|-----------------7-----5--|--L-------------------|
--4s--5-----5-----5-----5--|-----5-----5-----5--------|------------------2s--|
--2s--3-----3-----3-----3--|-----3-----3--------------|----------------------|


  E  E  E  E   E  E  E  E     Q.     E  Q.     E     E  E  E  E  E  E  E  E   
---------------------------|----------------------|--------------3--------x--|
---------------------------|----------------------|-----------3-----3--L--x--|
-----0------------0--------|----------------------|--------5--------------x--|
--------2--x---------4-----|--9------9--L------5--|--L--5-----------------7--|
--3--------3s--5--------5--|--7------7--L------3--|--L--------------------5--|
---------------------------|----------------------|--------------------------|


  Q.     E  E  E  E  E     E  E  E   E  E  E  E  E     Q.     E  Q.     E   
------------------------|---------------------------|----------------------|
------------------------|---------------------------|----------------------|
------------------------|---------------------------|----------------------|
--L------7--7--7--L-----|---------------------4--5--|--9------9--L------5--|
--L------5--5--5--L-----|--------2h--3--5--7--------|--7------7--L------3--|
---------------------3--|--L--5---------------------|----------------------|


                                                                              PM PM    PM    PM PM  
  E  E  E  E  E  E  E  E     W                   E  E  E  E  E  E  Q       E  E  E  E  E  E  E  E   
--------------3--------x--|-------------------|-------------------------|--------------------------|
-----------3-----3--L--x--|-------------------|-------------------------|--------------------------|
--------5--------------x--|-------------------|-------------------------|--2--------2-----4--------|
--L--5-----------------7--|--L----------------|-------------------------|--0--0--0--0--0--0--0--0--|
--L--------------------5--|--L----------------|-------------------------|--------------------------|
--------------------------|-------------------|--7--0--L--1--L--2--L----|--------------------------|


     PM PM                                                                              
                    |--3--|                                                             
  E  E  E  E  E  E  S  S  S  E     Q    E  E  E  E  E  E      E  E  E  E   E  E  E  E   
--------------------------------|--------------------------|---------------------------|
--------------------------------|----------0--L--------x---|---------------------------|
--4--------4--L--5--5p-4p-2p-0--|----------------5-----x---|-----0------------0--------|
--0--0--0--0--L-----------------|--5----5-----------5--x---|--------2--x---------4-----|
--------------------------------|--3-------------------2s--|--3--------3s--5--------5--|
--------------------------------|--------------------------|---------------------------|


     PM PM    PM    PM PM       PM PM                                                  
                                               |--3--|                                 
  E  E  E  E  E  E  E  E     E  E  E  E  E  E  S  S  S  E     Q    E  E  E  E  E  E    
--------------------------|--------------------------------|--------------------------|
--------------------------|--------------------------------|----------0--L--------x---|
--2--------2-----4--------|--4--------4--L--5--5p-4p-2p-0--|----------------5-----x---|
--0--0--0--0--0--0--0--0--|--0--0--0--0--L-----------------|--5----5-----------5--x---|
--------------------------|--------------------------------|--3-------------------2s--|
--------------------------|--------------------------------|--------------------------|


                                 PM PM    PM    PM PM       PM PM                       
                                                                           |--3--|      
  E  E  E  E   E  E  E  E     E  E  E  E  E  E  E  E     E  E  E  E  E  E  S  S  S  E   
---------------------------|--------------------------|--------------------------------|
---------------------------|--------------------------|--------------------------------|
-----0------------0--------|--2--------2-----4--------|--4--------4--L--5--5p-4p-2p-0--|
--------2--x---------4-----|--0--0--0--0--0--0--0--0--|--0--0--0--0--L-----------------|
--3--------3s--5--------5--|--------------------------|--------------------------------|
---------------------------|--------------------------|--------------------------------|


                                                            PM PM    PM    PM PM  
  Q    E  E  E  E  E  E      E  E  E  E   E  E  E  E     E  E  E  E  E  E  E  E   
--------------------------|---------------------------|--------------------------|
----------0--L--------x---|---------------------------|--------------------------|
----------------5-----x---|-----0------------0--------|--2--------2-----4--------|
--5----5-----------5--x---|--------2--x---------4-----|--0--0--0--0--0--0--0--0--|
--3-------------------2s--|--3--------3s--5--------5--|--------------------------|
--------------------------|---------------------------|--------------------------|


     PM PM                                                                 
                    |--3--|                                                
  E  E  E  E  E  E  S  S  S  E     H.           E  E     W                 
--------------------------------|---------------------|-------------------|
--------------------------------|---------------------|-------------------|
--4--------4--L--5--5p-4p-2p-0--|---------------------|-------------------|
--0--0--0--0--L-----------------|--5------------L--5--|--L----------------|
--------------------------------|--3------------L--2--|--L----------------|
--------------------------------|---------------------|-------------------|


     PM PM    PM PM     PM PM    PM PM       PM PM    PM PM                                
  E  S  S  E  S  S   E  S  S  E  S  S     E  S  S  E  S  S  Q    Q       W                 
---------------------------------------|------------------------------|-------------------|
---------------------------------------|------------------------------|-------------------|
---------------------------------------|------------------------------|-------------------|
--7--0--0--9--0--0--10--0--0--9--0--0--|--7--0--0--5--0--0--4----5----|--5----------------|
---------------------------------------|------------------------------|--3----------------|
---------------------------------------|------------------------------|-------------------|


                             
  W                                           E  E  Q     H          
-------------------------------------------|-----------------------||
-------------------------------------------|-----------------------||
-------------------------------------------|--7--7--L\-------------||
--L----------------------------------------|--5--5--L\-------------||
--L----------------------------------------|-----------------------||
-------------------------------------------|-----------------------||



Lead - primary



     W                   W                   W                   W                 
E||-------------------|-------------------|-------------------|-------------------|
B||-------------------|-------------------|-------------------|-------------------|
G||-------------------|-------------------|-------------------|-------------------|
D||-------------------|-------------------|-------------------|-------------------|
A||-------------------|-------------------|-------------------|-------------------|
E||-------------------|-------------------|-------------------|-------------------|


  W                   W                   W                   W                   W                 
-------------------|-------------------|-------------------|-------------------|-------------------|
-------------------|-------------------|-------------------|-------------------|-------------------|
-------------------|-------------------|-------------------|-------------------|-------------------|
-------------------|-------------------|-------------------|-------------------|-------------------|
-------------------|-------------------|-------------------|-------------------|-------------------|
-------------------|-------------------|-------------------|-------------------|-------------------|


  W                   W                   W                   W                   W                 
-------------------|-------------------|-------------------|-------------------|-------------------|
-------------------|-------------------|-------------------|-------------------|-------------------|
-------------------|-------------------|-------------------|-------------------|-------------------|
-------------------|-------------------|-------------------|-------------------|-------------------|
-------------------|-------------------|-------------------|-------------------|-------------------|
-------------------|-------------------|-------------------|-------------------|-------------------|


  W                   W                   W                   W                   W                 
-------------------|-------------------|-------------------|-------------------|-------------------|
-------------------|-------------------|-------------------|-------------------|-------------------|
-------------------|-------------------|-------------------|-------------------|-------------------|
-------------------|-------------------|-------------------|-------------------|-------------------|
-------------------|-------------------|-------------------|-------------------|-------------------|
-------------------|-------------------|-------------------|-------------------|-------------------|


  W                   W                   W                   W                   W                 
-------------------|-------------------|-------------------|-------------------|-------------------|
-------------------|-------------------|-------------------|-------------------|-------------------|
-------------------|-------------------|-------------------|-------------------|-------------------|
-------------------|-------------------|-------------------|-------------------|-------------------|
-------------------|-------------------|-------------------|-------------------|-------------------|
-------------------|-------------------|-------------------|-------------------|-------------------|


  W                   W                   W                   W                   W                 
-------------------|-------------------|-------------------|-------------------|-------------------|
-------------------|-------------------|-------------------|-------------------|-------------------|
-------------------|-------------------|-------------------|-------------------|-------------------|
-------------------|-------------------|-------------------|-------------------|-------------------|
-------------------|-------------------|-------------------|-------------------|-------------------|
-------------------|-------------------|-------------------|-------------------|-------------------|


  W                   W                   W                   W                   W                 
-------------------|-------------------|-------------------|-------------------|-------------------|
-------------------|-------------------|-------------------|-------------------|-------------------|
-------------------|-------------------|-------------------|-------------------|-------------------|
-------------------|-------------------|-------------------|-------------------|-------------------|
-------------------|-------------------|-------------------|-------------------|-------------------|
-------------------|-------------------|-------------------|-------------------|-------------------|


  H        Q    E   E      Q     Q     E   E   E   E      W                   W                 
-----------------------|------------------------------|--------------------|-------------------|
-----------------------|------------------------------|--------------------|-------------------|
-------------------12--|---L----11--------------------|--------------------|-------------------|
-----------------------|--------------14--14--12--14--|---L----------------|-------------------|
-----------------------|------------------------------|--------------------|-------------------|
-----------------------|------------------------------|--------------------|-------------------|


  W                   W                   W                   W                   W                 
-------------------|-------------------|-------------------|-------------------|-------------------|
-------------------|-------------------|-------------------|-------------------|-------------------|
-------------------|-------------------|-------------------|-------------------|-------------------|
-------------------|-------------------|-------------------|-------------------|-------------------|
-------------------|-------------------|-------------------|-------------------|-------------------|
-------------------|-------------------|-------------------|-------------------|-------------------|


  W                   W                   W                   W                   W                 
-------------------|-------------------|-------------------|-------------------|-------------------|
-------------------|-------------------|-------------------|-------------------|-------------------|
-------------------|-------------------|-------------------|-------------------|-------------------|
-------------------|-------------------|-------------------|-------------------|-------------------|
-------------------|-------------------|-------------------|-------------------|-------------------|
-------------------|-------------------|-------------------|-------------------|-------------------|


  W                   W                   W                   W                   W                 
-------------------|-------------------|-------------------|-------------------|-------------------|
-------------------|-------------------|-------------------|-------------------|-------------------|
-------------------|-------------------|-------------------|-------------------|-------------------|
-------------------|-------------------|-------------------|-------------------|-------------------|
-------------------|-------------------|-------------------|-------------------|-------------------|
-------------------|-------------------|-------------------|-------------------|-------------------|


  W                   W                   W                   W                   W                 
-------------------|-------------------|-------------------|-------------------|-------------------|
-------------------|-------------------|-------------------|-------------------|-------------------|
-------------------|-------------------|-------------------|-------------------|-------------------|
-------------------|-------------------|-------------------|-------------------|-------------------|
-------------------|-------------------|-------------------|-------------------|-------------------|
-------------------|-------------------|-------------------|-------------------|-------------------|


  H        Q    E   E      Q     Q     E   E   E   E      W                   W                 
-----------------------|------------------------------|--------------------|-------------------|
-----------------------|------------------------------|--------------------|-------------------|
-------------------12--|---L----11--------------------|--------------------|-------------------|
-----------------------|--------------14--14--12--14--|---L----------------|-------------------|
-----------------------|------------------------------|--------------------|-------------------|
-----------------------|------------------------------|--------------------|-------------------|


  W                   W                   W                   W                   W                 
-------------------|-------------------|-------------------|-------------------|-------------------|
-------------------|-------------------|-------------------|-------------------|-------------------|
-------------------|-------------------|-------------------|-------------------|-------------------|
-------------------|-------------------|-------------------|-------------------|-------------------|
-------------------|-------------------|-------------------|-------------------|-------------------|
-------------------|-------------------|-------------------|-------------------|-------------------|


  W                   W                   W                   W                   W                 
-------------------|-------------------|-------------------|-------------------|-------------------|
-------------------|-------------------|-------------------|-------------------|-------------------|
-------------------|-------------------|-------------------|-------------------|-------------------|
-------------------|-------------------|-------------------|-------------------|-------------------|
-------------------|-------------------|-------------------|-------------------|-------------------|
-------------------|-------------------|-------------------|-------------------|-------------------|


   H           E    E    E   E       Q     Q       E   E   E   E    
----------------------------22b--|---L----22b~-----L---L\----------|
--15b~---------L\--15b~----------|----------------------------15b--|
---------------------------------|---------------------------------|
---------------------------------|---------------------------------|
---------------------------------|---------------------------------|
---------------------------------|---------------------------------|


   E   S  S  E   E    Q     E   E       Q     E   E    E    E   E   E    
------------------------------------|-----------------------------------|
---L--15-13-12-------------13-------|--------13-------------------------|
----------------14~---L--------12~--|---L--------11~---L~--11\-----11/--|
------------------------------------|-----------------------------------|
------------------------------------|-----------------------------------|
------------------------------------|-----------------------------------|


                   PM                                                            
   S  S  S  S  E   E   E   E   E   E       S  S  S   S  E   E    Q     E   S  S  
---------------------------------------|-----19---------------------------17-17-|
-----15--------------------------------|--------19p-15-----20b---L-----L--------|
--14----12-14-11------11--11---L--11/--|--16-----------16-----------------------|
------------------14-------------------|----------------------------------------|
---------------------------------------|----------------------------------------|
---------------------------------------|----------------------------------------|


          |--3--|                                                      |---3---|  
   S   S  S  S  S  S   S  S  S  E   E   E   E      H         Q     E   S   S   S  
-----------------------------------------------|---------------------------------|
--20b--L-20-20-20-20s-19-19-19-19--20--19--17--|--15---------L-----L-------------|
-----------------------------------------------|----------------------12h-14h-15-|
-----------------------------------------------|---------------------------------|
-----------------------------------------------|---------------------------------|
-----------------------------------------------|---------------------------------|


   |---3---|         |--3--|        |---3--|   |---3--|  |--3--|        
   S   S   S  S   S  S  S  S  S  S  S   S  S   S  S   S  S  S  S  S  S  
--12h-14h-15-12h-14-12----12-14-12-14p-12--------12h-14-12-14-12-------|
-----------------------15----------------------------------------14-12-|
------------------------------------------15h-16-----------------14-12-|
-----------------------------------------------------------------------|
-----------------------------------------------------------------------|
-----------------------------------------------------------------------|


       \1/                  PM PM        PM  PM     PM PM                                           
   E   E   E   E   Q     E  S  S      E  S   S  E   S  S  E   E   E   E     H        E   E   Q      
----------------------------------|--------------------------------------|-------------------------|
--12---L--12--12---L\-------------|--10----------------------------------|-------------------------|
----------------------------------|------------12--------11--12---L\-----|-------------------------|
----------------------------------|--------------------------------------|-------------------------|
----------------------------9--9--|------9--10-----10-10--------------9--|--L--------L-------------|
----------------------------------|--------------------------------------|--------------12---L\----|


   PM PM PM PM PM PM            PM PM                TP   TP                        
                     |---3---|                                                      
   S  S  S  S  S  S  S   S   S  S  S  E   E   E      E.   S  E   E   Q     E   E    
-------------------------------------------------|--------------17--22b-------15b--|
---------------------------------------------17--|--17---19--L---------------------|
-----------------------------------------16------|---------------------------------|
-------------------------------------16----------|---------------------------------|
--12-12-12-12-12-12-12h-14h-16-14-14-------------|---------------------------------|
-------------------------------------------------|---------------------------------|


   E   E   E    E   E   E   E    E      E   E   E   E   E   E   E   E      H.            E   E   
---L--15--14p--12--14--15---L\------|----------------------------------|------------------------|
------------------------------------|----------------------------------|------------------------|
--------------------------------14--|---L--13--12----------------------|------------------------|
------------------------------------|--------------14--12--------------|------------------------|
------------------------------------|----------------------13--12--10--|---L-------------L--10--|
------------------------------------|----------------------------------|------------------------|


   H         H           W                   W                   W                 
----------------------|-------------------|-------------------|-------------------|
----------------------|-------------------|-------------------|-------------------|
----------------------|-------------------|-------------------|-------------------|
----------------------|-------------------|-------------------|-------------------|
---L\-----------------|-------------------|-------------------|-------------------|
----------------------|-------------------|-------------------|-------------------|


  W                   W                   W                   W                   W                 
-------------------|-------------------|-------------------|-------------------|-------------------|
-------------------|-------------------|-------------------|-------------------|-------------------|
-------------------|-------------------|-------------------|-------------------|-------------------|
-------------------|-------------------|-------------------|-------------------|-------------------|
-------------------|-------------------|-------------------|-------------------|-------------------|
-------------------|-------------------|-------------------|-------------------|-------------------|


  H        Q    E   E      Q     Q     E   E   E   E      W                   W                 
-----------------------|------------------------------|--------------------|-------------------|
-----------------------|------------------------------|--------------------|-------------------|
-------------------12--|---L----11--------------------|--------------------|-------------------|
-----------------------|--------------14--14--12--14--|---L----------------|-------------------|
-----------------------|------------------------------|--------------------|-------------------|
-----------------------|------------------------------|--------------------|-------------------|


  W                   W                   H        Q    E   S  S  
-------------------|-------------------|-------------------------|
-------------------|-------------------|-------------------13-15-|
-------------------|-------------------|-------------------------|
-------------------|-------------------|-------------------------|
-------------------|-------------------|-------------------------|
-------------------|-------------------|-------------------------|


                                     \1/ \1/ \1/ \1/                          
   |---3---|        |------5------|                                           
   S   S   S  S  S  S  S  S   S   S  E   E   E   E      H.             Q      
----------------------------------------------------|------------------------|
--12h-13p-12----12-13-15-12h-13p-12-----------------|------------------------|
-------------14---------------------14--14--14--14--|---L~-------------L\----|
----------------------------------------------------|------------------------|
----------------------------------------------------|------------------------|
----------------------------------------------------|------------------------|


       NH      \1/                                                                              
  E    E  E    E  H           H        Q    E   S  S     E   S  S  E   S  S  E   E   S   S  E   
---------------------------|-------------------22-22-|--22--20-20-20--19-19-19--20--20p-19-----|
---------------------------|-------------------------|-------------------------------------20--|
---------------------------|-------------------------|-----------------------------------------|
-----<>5--L--<>5--L--------|-------------------------|-----------------------------------------|
---------------------------|-------------------------|-----------------------------------------|
---------------------------|-------------------------|-----------------------------------------|


   W                     Q     Q    H           W                   W                 
---------------------|-----------------------|-------------------|-------------------|
--20~----------------|---L\------------------|-------------------|-------------------|
---------------------|-----------------------|-------------------|-------------------|
---------------------|-----------------------|-------------------|-------------------|
---------------------|-----------------------|-------------------|-------------------|
---------------------|-----------------------|-------------------|-------------------|


  W                   W                   W                   W                   W                 
-------------------|-------------------|-------------------|-------------------|-------------------|
-------------------|-------------------|-------------------|-------------------|-------------------|
-------------------|-------------------|-------------------|-------------------|-------------------|
-------------------|-------------------|-------------------|-------------------|-------------------|
-------------------|-------------------|-------------------|-------------------|-------------------|
-------------------|-------------------|-------------------|-------------------|-------------------|


  W                   W                   W                 
-------------------|-------------------|-------------------|
-------------------|-------------------|-------------------|
-------------------|-------------------|-------------------|
-------------------|-------------------|-------------------|
-------------------|-------------------|-------------------|
-------------------|-------------------|-------------------|


            sweep it!                                                             
                            |--3--|                                               
  H         S         S  S  T  T  T  S  T  T  T  T  S     H.             E   E    
------------------------------------20-20-------------|--------------------------|
---------------------------------20-------20----------|--------------------------|
------------------------------21-------------21-------|--------------------------|
---------------------------22-------------------22--L-|---L~-------------L---L\--|
---------------------19-22----------------------------|--------------------------|
-----------20-----------------------------------------|--------------------------|


     
  W                                          
-------------------------------------------||
-------------------------------------------||
-------------------------------------------||
-------------------------------------------||
-------------------------------------------||
-------------------------------------------||



Lead - secondary



     W                   W                   W                   W                 
E||-------------------|-------------------|-------------------|-------------------|
B||-------------------|-------------------|-------------------|-------------------|
G||-------------------|-------------------|-------------------|-------------------|
D||-------------------|-------------------|-------------------|-------------------|
A||-------------------|-------------------|-------------------|-------------------|
E||-------------------|-------------------|-------------------|-------------------|


  W                   W                   W                   W                   W                 
-------------------|-------------------|-------------------|-------------------|-------------------|
-------------------|-------------------|-------------------|-------------------|-------------------|
-------------------|-------------------|-------------------|-------------------|-------------------|
-------------------|-------------------|-------------------|-------------------|-------------------|
-------------------|-------------------|-------------------|-------------------|-------------------|
-------------------|-------------------|-------------------|-------------------|-------------------|


  W                   W                   W                   W                   W                 
-------------------|-------------------|-------------------|-------------------|-------------------|
-------------------|-------------------|-------------------|-------------------|-------------------|
-------------------|-------------------|-------------------|-------------------|-------------------|
-------------------|-------------------|-------------------|-------------------|-------------------|
-------------------|-------------------|-------------------|-------------------|-------------------|
-------------------|-------------------|-------------------|-------------------|-------------------|


  W                   W                   W                   W                   W                 
-------------------|-------------------|-------------------|-------------------|-------------------|
-------------------|-------------------|-------------------|-------------------|-------------------|
-------------------|-------------------|-------------------|-------------------|-------------------|
-------------------|-------------------|-------------------|-------------------|-------------------|
-------------------|-------------------|-------------------|-------------------|-------------------|
-------------------|-------------------|-------------------|-------------------|-------------------|


  W                   W                   W                   W                   W                 
-------------------|-------------------|-------------------|-------------------|-------------------|
-------------------|-------------------|-------------------|-------------------|-------------------|
-------------------|-------------------|-------------------|-------------------|-------------------|
-------------------|-------------------|-------------------|-------------------|-------------------|
-------------------|-------------------|-------------------|-------------------|-------------------|
-------------------|-------------------|-------------------|-------------------|-------------------|


  W                   W                   W                   W                   W                 
-------------------|-------------------|-------------------|-------------------|-------------------|
-------------------|-------------------|-------------------|-------------------|-------------------|
-------------------|-------------------|-------------------|-------------------|-------------------|
-------------------|-------------------|-------------------|-------------------|-------------------|
-------------------|-------------------|-------------------|-------------------|-------------------|
-------------------|-------------------|-------------------|-------------------|-------------------|


  W                   W                   W                   W                   W                 
-------------------|-------------------|-------------------|-------------------|-------------------|
-------------------|-------------------|-------------------|-------------------|-------------------|
-------------------|-------------------|-------------------|-------------------|-------------------|
-------------------|-------------------|-------------------|-------------------|-------------------|
-------------------|-------------------|-------------------|-------------------|-------------------|
-------------------|-------------------|-------------------|-------------------|-------------------|


  H        Q    E   E      Q      Q     E   E   E   E      W                   W                 
-----------------------|-------------------------------|--------------------|-------------------|
-------------------12--|---L~----10--------------------|--------------------|-------------------|
-----------------------|---------------12--12--11--12--|---L----------------|-------------------|
-----------------------|-------------------------------|--------------------|-------------------|
-----------------------|-------------------------------|--------------------|-------------------|
-----------------------|-------------------------------|--------------------|-------------------|


  W                   W                   W                   W                   W                 
-------------------|-------------------|-------------------|-------------------|-------------------|
-------------------|-------------------|-------------------|-------------------|-------------------|
-------------------|-------------------|-------------------|-------------------|-------------------|
-------------------|-------------------|-------------------|-------------------|-------------------|
-------------------|-------------------|-------------------|-------------------|-------------------|
-------------------|-------------------|-------------------|-------------------|-------------------|


  W                   W                   W                   W                   W                 
-------------------|-------------------|-------------------|-------------------|-------------------|
-------------------|-------------------|-------------------|-------------------|-------------------|
-------------------|-------------------|-------------------|-------------------|-------------------|
-------------------|-------------------|-------------------|-------------------|-------------------|
-------------------|-------------------|-------------------|-------------------|-------------------|
-------------------|-------------------|-------------------|-------------------|-------------------|


  W                   W                   W                   W                   W                 
-------------------|-------------------|-------------------|-------------------|-------------------|
-------------------|-------------------|-------------------|-------------------|-------------------|
-------------------|-------------------|-------------------|-------------------|-------------------|
-------------------|-------------------|-------------------|-------------------|-------------------|
-------------------|-------------------|-------------------|-------------------|-------------------|
-------------------|-------------------|-------------------|-------------------|-------------------|


  W                   W                   W                   W                   W                 
-------------------|-------------------|-------------------|-------------------|-------------------|
-------------------|-------------------|-------------------|-------------------|-------------------|
-------------------|-------------------|-------------------|-------------------|-------------------|
-------------------|-------------------|-------------------|-------------------|-------------------|
-------------------|-------------------|-------------------|-------------------|-------------------|
-------------------|-------------------|-------------------|-------------------|-------------------|


  H        Q    E   E      Q      Q     E   E   E   E      W                   W                 
-----------------------|-------------------------------|--------------------|-------------------|
-------------------12--|---L~----10--------------------|--------------------|-------------------|
-----------------------|---------------12--12--11--12--|---L----------------|-------------------|
-----------------------|-------------------------------|--------------------|-------------------|
-----------------------|-------------------------------|--------------------|-------------------|
-----------------------|-------------------------------|--------------------|-------------------|


  W                   W                   W                   W                   W                 
-------------------|-------------------|-------------------|-------------------|-------------------|
-------------------|-------------------|-------------------|-------------------|-------------------|
-------------------|-------------------|-------------------|-------------------|-------------------|
-------------------|-------------------|-------------------|-------------------|-------------------|
-------------------|-------------------|-------------------|-------------------|-------------------|
-------------------|-------------------|-------------------|-------------------|-------------------|


  W                   W                   W                   W                   W                 
-------------------|-------------------|-------------------|-------------------|-------------------|
-------------------|-------------------|-------------------|-------------------|-------------------|
-------------------|-------------------|-------------------|-------------------|-------------------|
-------------------|-------------------|-------------------|-------------------|-------------------|
-------------------|-------------------|-------------------|-------------------|-------------------|
-------------------|-------------------|-------------------|-------------------|-------------------|


  W                   W                   W                   W                   W                 
-------------------|-------------------|-------------------|-------------------|-------------------|
-------------------|-------------------|-------------------|-------------------|-------------------|
-------------------|-------------------|-------------------|-------------------|-------------------|
-------------------|-------------------|-------------------|-------------------|-------------------|
-------------------|-------------------|-------------------|-------------------|-------------------|
-------------------|-------------------|-------------------|-------------------|-------------------|


  W                   W                   W                   W                   W                 
-------------------|-------------------|-------------------|-------------------|-------------------|
-------------------|-------------------|-------------------|-------------------|-------------------|
-------------------|-------------------|-------------------|-------------------|-------------------|
-------------------|-------------------|-------------------|-------------------|-------------------|
-------------------|-------------------|-------------------|-------------------|-------------------|
-------------------|-------------------|-------------------|-------------------|-------------------|


  W                   W                   W                   W                   W                 
-------------------|-------------------|-------------------|-------------------|-------------------|
-------------------|-------------------|-------------------|-------------------|-------------------|
-------------------|-------------------|-------------------|-------------------|-------------------|
-------------------|-------------------|-------------------|-------------------|-------------------|
-------------------|-------------------|-------------------|-------------------|-------------------|
-------------------|-------------------|-------------------|-------------------|-------------------|


  W                   W                   W                   W                   W                 
-------------------|-------------------|-------------------|-------------------|-------------------|
-------------------|-------------------|-------------------|-------------------|-------------------|
-------------------|-------------------|-------------------|-------------------|-------------------|
-------------------|-------------------|-------------------|-------------------|-------------------|
-------------------|-------------------|-------------------|-------------------|-------------------|
-------------------|-------------------|-------------------|-------------------|-------------------|


  W                   W                   W                   W                   W                 
-------------------|-------------------|-------------------|-------------------|-------------------|
-------------------|-------------------|-------------------|-------------------|-------------------|
-------------------|-------------------|-------------------|-------------------|-------------------|
-------------------|-------------------|-------------------|-------------------|-------------------|
-------------------|-------------------|-------------------|-------------------|-------------------|
-------------------|-------------------|-------------------|-------------------|-------------------|


  W                   H        Q    E   E      Q      Q     E   E   E   E      W                 
-------------------|-----------------------|-------------------------------|--------------------|
-------------------|-------------------12--|---L~----10--------------------|--------------------|
-------------------|-----------------------|---------------12--12--11--12--|---L----------------|
-------------------|-----------------------|-------------------------------|--------------------|
-------------------|-----------------------|-------------------------------|--------------------|
-------------------|-----------------------|-------------------------------|--------------------|


  W                   W                   W                   W                   W                 
-------------------|-------------------|-------------------|-------------------|-------------------|
-------------------|-------------------|-------------------|-------------------|-------------------|
-------------------|-------------------|-------------------|-------------------|-------------------|
-------------------|-------------------|-------------------|-------------------|-------------------|
-------------------|-------------------|-------------------|-------------------|-------------------|
-------------------|-------------------|-------------------|-------------------|-------------------|


  W                   W                   W                   W                   W                 
-------------------|-------------------|-------------------|-------------------|-------------------|
-------------------|-------------------|-------------------|-------------------|-------------------|
-------------------|-------------------|-------------------|-------------------|-------------------|
-------------------|-------------------|-------------------|-------------------|-------------------|
-------------------|-------------------|-------------------|-------------------|-------------------|
-------------------|-------------------|-------------------|-------------------|-------------------|


  W                   W                   W                   W                   W                 
-------------------|-------------------|-------------------|-------------------|-------------------|
-------------------|-------------------|-------------------|-------------------|-------------------|
-------------------|-------------------|-------------------|-------------------|-------------------|
-------------------|-------------------|-------------------|-------------------|-------------------|
-------------------|-------------------|-------------------|-------------------|-------------------|
-------------------|-------------------|-------------------|-------------------|-------------------|


  W                   W                   W                   W                   W                 
-------------------|-------------------|-------------------|-------------------|-------------------|
-------------------|-------------------|-------------------|-------------------|-------------------|
-------------------|-------------------|-------------------|-------------------|-------------------|
-------------------|-------------------|-------------------|-------------------|-------------------|
-------------------|-------------------|-------------------|-------------------|-------------------|
-------------------|-------------------|-------------------|-------------------|-------------------|


                                            
  W                   W                                           W                 
-------------------|-------------------------------------------|-------------------|
-------------------|-------------------------------------------|-------------------|
-------------------|-------------------------------------------|-------------------|
-------------------|-------------------------------------------|-------------------|
-------------------|-------------------------------------------|-------------------|
-------------------|-------------------------------------------|-------------------|


  W                  
-------------------||
-------------------||
-------------------||
-------------------||
-------------------||
-------------------||




Duration Legend
---------------
W - whole
H - half
Q - quarter
E - 8th
S - 16th
T - 32nd
X - 64th
. - note dotted
|-n-|  - n-tuplets


Tablature Legend
----------------
L - tied note
x - dead note
g - grace note
(n) - ghost note
> - accentuded note
NH - natural harmonic
AH - artificial harmonic
TH - tapped harmonic
SH - semi harmonic
PH - pitch harmonic
h - hammer on
p - pull off
b - bend
br - bendRelease
pb - preBend
pbr - preBendRelease
brb - bendReleaseBend
\n/ - tremolo bar dip
\n - tremolo bar dive
-/n - tremolo bar Release up
/n\ - tremolo bar inverted dip
/n - tremolo bar return
-\n - tremolo bar Release down
S - shift slide
s - legato slide
/ -  slide into from below or out of upwards
\ -  slide into from above or out of downwards
~ - vibrato
W - wide vibrato
tr - trill
TP - tremolo picking
T - tapping
S - slap
P - pop
< - fade in
^ - brush up
v - brush down
comments
We did not receive enough feedback on this tab! Please rate:
print report bad tab
1 2 3 4 5
1 comment total.
0 reply
TexasFury wrote on November 10 2008, 06:10 pm

This a 100% Certified Texas Tab™. Don't settle for less. Only a song by a Texas band that is tabbed by a Texas Shredder in The Great Republic of Texas can be labeled a Genuine Texas Tab™. SRV approved.

I want to post or [tab]
guest
You may want to rate the tab now too:
select rating
Please do not post tabs as comments. Select "correction" instead!